Song name
# A B C D E F G H I J K L M N O P Q R S T U V W X Y Z

Blitzkid - Vanishing Riders tab

Blitzkid - Vanishing Riders


Intro:     1 - 33sec

|----------------------------------------------------------------|
|---------------2------------------2-----------------2-----------|
|---6-x-6------3-3------6-x-6-----3-3-----6-x-6-----3-3----------|
|---5-x-5-----4---4-----5-x-5----4---4----5-x-5----4---4---------|
|---5-x-5----4-----4----5-x-5---4-----4---5-x-5---4-----4--------|
|---4-x-4--2------------4-x-4--2----------4-x-4--2---------------|

|----------------------------------------------------------------------------|
|-----------6-6-6--4--2--1---------------------------------------------------|
|---6-x-6---6-6-6--5--3--1-----------6-5-6--6/8-6-5--------------------------|
|---5-x-5-------------------------------------------6--6h8p6--4-3-4-6-4-3-1--|
|---5-x-5--------------------------------------------------------------------|
|---4-x-4--------------------------------------------------------------------|


|------------------------------------------------|
|-------------------------9----------7-----------|
|---------------------------8----------6---------|
|---------------------/6---------/4--------------|
|--4-3-4-4/6-4-3---------------------------------|
|------------------------------------------------|

   33 - 1.03sec

|-------------------------------------------------|
|-------------2-----------------------------------|
|--6-x-6-----3-3----------------------------------|  repeat
|--5-x-5----4---4---------------------------------|
|--5-x-5---4-----4--------------------------------|
|--4-x-4--2---------------------------------------|

    Despair has gripped the air tonite...........

Rest will follow soon.
Tap to rate this tab
# A B C D E F G H I J K L M N O P Q R S T U V W X Y Z