Song name
# A B C D E F G H I J K L M N O P Q R S T U V W X Y Z

Blitzkrieg - Hell To Pay tab

Tabbed by:kolte666
Email:kolte666@yahoo.com

Guitar 1
e|---------------------------|
B|---------------------------|
G|----5----------------------|
D|----3----------------------|X2
A|-------3-3-3-4-3-1--4-3-1--|
E|---------------------------|

Guitar 2
e|----------------------------|
B|----------------------------|
G|-----9----------------------|
D|-----7----------------------|
A|--------7-7-7-8-7-5--8-7-5--|
E|----------------------------|

Tap to rate this tab
# A B C D E F G H I J K L M N O P Q R S T U V W X Y Z