Song name
# A B C D E F G H I J K L M N O P Q R S T U V W X Y Z

Blizzard At Sea - Simulacra tab

-------------------------------------------------------------------------------
                             SIMULACRA - Blizzard at Sea
-------------------------------------------------------------------------------
Tabbed by:SventryWK
E-mail:sventrywk@gmail.com

Tuning: D Standard                                            
d|-------------------------------------------------------------------------------------------------| 
A|-------------------------------------------------------------------------------------------------|
F|-------12-14-------12-14-------12-14-------12-14-------12----------12----------12----------12----|
C|----14----------14----------14----------14----------14----14----14----14----14----14----14----14-|
G|-12----------12----------12----------12----------12----------12----------12----------12----------|
D|-------------------------------------------------------------------------------------------------|

d|-------------------------------------------------------------------------------------------------|
A|-------------------------------------------------------------------------------------------------|
F|-------12-14-------12-14-------12-14-------12-14-------12----------12----------12----------12----|
C|----14----------14----------14----------14----------14----14----14----14----14----14----14----14-|
G|-12----------12----------12----------12----------12----------12----------12----------12----------|
D|-------------------------------------------------------------------------------------------------|

d|-------------------------------------------------------------------------------------------------|
A|-------------------------------------------------------------------------------------------------|
F|-------12-11-------12-11-------12-11-------12-11-------9-10-------9-10-------9-10-------9-10-----|
C|----14----------14----------14----------14----------10---------10---------10---------10----------|
G|-12----------12----------12----------12----------12---------12---------12---------12-------------|
D|-------------------------------------------------------------------------------------------------|

d|-------------------------------------------------------------------------------------------------| 
A|-------------------------------------------------------------------------------------------------|
F|-------12-14-------12-14-------12-14-------12-14-------12----------12----------12----------12----|
C|----14----------14----------14----------14----------14----14----14----14----14----14----14----14-|
G|-12----------12----------12----------12----------12----------12----------12----------12----------|
D|-------------------------------------------------------------------------------------------------|

d|-------------------------------------------------------------------------------------------------|
A|-------------------------------------------------------------------------------------------------|
F|-------12-14-------12-14-------12-14-------12-14-------12----------12----------12----------12----|
C|----14----------14----------14----------14----------14----14----14----14----14----14----14----14-|
G|-12----------12----------12----------12----------12----------12----------12----------12----------|
D|-------------------------------------------------------------------------------------------------|

d|-------------------------------------------------------------------------------------------------|
A|-------------------------------------------------------------------------------------------------|
F|-------12-11-------12-11-------12-11-------12-11-------9-10-------9-10-------9-10-------9-10-----|
C|----14----------14----------14----------14----------10---------10---------10---------10----------|
G|-12----------12----------12----------12----------12---------12---------12---------12-------------|
D|-------------------------------------------------------------------------------------------------|

d|-----------------------------------------------------------------------------|
A|-----------------------------------------------------------------------------|
F|---------------7-9---------------------------------7-9--------9-7------7-----|
C|---10-9-7-9-10-----10-9-7-10-9-7-7-9---10-9-7-9-10-----10-9-7-----10-9-------|
G|-7-----------------------------------7---------------------------------------|
D|-----------------------------------------------------------------------------|

d|-----------------------------------------------------------------------------|
A|-----------------------------------------------------------------------------|
F|-------------3-5-----------------------------3-5-------5-3-----3-------------|
C|---6-5-3-5-6-----6-5-3-6-5-3-3-5---6-5-3-5-6-----6-5-3-----6-5---------------|
G|-3-------------------------------3-------------------------------------------|
D|-----------------------------------------------------------------------------|

d|-----------------------------------------------------------------------------|
A|-----------------------------------------------------------------------------|
F|-----------------------------------------------------------------------------|
C|-------------5-7-----------------------------5-7-----------------------------|
G|---8-7-5-7-8-----8-7-5-8-7-5-5-7---8-7-5-7-8-----8-7-------------------------|
D|-5-------------------------------5-------------------8-7-5-5-7---------------|


************************************

| /   slide up
| \   slide down
| h   hammer-on
| p   pull-off
| ~   vibrato
| +   harmonic
| x   Mute note
| b   Bend
| pb  Pre-bend
| br  Bend release
| pbr Pre-bend release
| brb Bend release bend

************************************
Tap to rate this tab
 
# A B C D E F G H I J K L M N O P Q R S T U V W X Y Z