Song name
# A B C D E F G H I J K L M N O P Q R S T U V W X Y Z

Blizzard - Solitude tab

Solitude

|--------------------------------------------------------------|
|-------3-----------------3-----------3-----------------3------|
|-----3---5-2h3p2-------3---5-------3---5-2h3p2-------3---5----|
|-5---------------3-5-----------5---------------3-5------------|
|--------------------------------------------------------------|
|--------------------------------------------------------------|

|-5h6p5---5-5----5h6p5---5-5----------------------------------------|
|-------6--------------6--------------3-----------------3-----------|
|-----------------------------------3---5-2h3p2-------3---5-2h3p2---|
|-------------------------------5---------------3-5---------------3-|
|-------------------------------------------------------------------|
|-------------------------------------------------------------------|

|-------------------------------------------------------------------------|
|-----3--------------3------------3---------------3-------------3---------|
|-3-----5-232------3---5--------3---5-232-------3---5-232-----3---5-232---|
|-------------3-/5----------5-------------3-5-------------3-5-----------3-|
|-------------------------------------------------------------------------|
|-------------------------------------------------------------------------|

|--------------------------------------------------------------|
|--------------------------------------------------------------|
|-----232--------------5-2---------232--------------5-2--------|
|-5-------3-3\-----3-5----/5---5-------3-3\-----3-5----/5------|
|--------------3-5--------------------------3-5----------------|
|--------------------------------------------------------------|

|--------------------------------------------------------------|
|--------------------------------------------------------------|
|-2/3-2-----3-2-----------3\2--------232--------------5-2------|
|-------5-------5---3-3-5-----5---5------3-3\-----3-5----/5----|
|---------------------------------------------3-5--------------|
|--------------------------------------------------------------|
Tap to rate this tab
# A B C D E F G H I J K L M N O P Q R S T U V W X Y Z