Song name
# A B C D E F G H I J K L M N O P Q R S T U V W X Y Z

Bloc Party - Flux Acoustic tab

-------------------------------------------------------------------------------
			    Flux (Acoustic) - Bloc Party
-------------------------------------------------------------------------------
Tabbed by: Smair

This is my first tab, I am pretty sure it is correct. Enjoy!

Tuning: Standard

INTRO:
Guitar 1
e|-------------------------------------|
B|-------------------------------------|
G|-6666666-22222222---------444444-55--|
D|-6666666-22222222-2222222-444444-55--|
A|-4444444-00000000-2222222-222222-33--|
E|------------------0000000------------|


INTRO:
Guitar 2
e|-7--------0--------4-----(0)2--------|
B|-------------------------------------|
G|-------------------------------------|
D|-------------------------------------|
A|-------------------------------------|
E|-------------------------------------|


VERSE:
Guitar (Play Fast)
e|-------------------------------------|
B|-------------------------------------|
G|-------------------------------------|
D|-------------------------------------|
A|-------------------------------------|
E|-9---12---5--------------------------|


CHORUS:
Guitar 1
e |------------------------------------|
B |------------------------------------|
G |------------------------------------|
D |------------------------------------|
A |------------------------------------|
E |--9--5--12--7-8-9--12--9--5--7------|


CHORUS:
Guitar 2
e|-7--------0--------4-----(0)2--------|
B|-------------------------------------|
G|-------------------------------------|
D|-------------------------------------|
A|-------------------------------------|
E|-------------------------------------|

OUTRO:
Guitar 1
e |------------------------------------|
B |------------------------------------|
G |------------------------------------|
D |------------------------------------|
A |------------------------------------|
E |--9--5--12--7-8-9--12--9--5--7------|


OUTRO:
Guitar 2
e|-7--------0--------4-----(0)2--------|
B|-------------------------------------|
G|-------------------------------------|
D|-------------------------------------|
A|-------------------------------------|
E|-------------------------------------|


Any questions? E-Mail me at smairhabib@googlemail.com
Tap to rate this tab
 
# A B C D E F G H I J K L M N O P Q R S T U V W X Y Z