Song name
# A B C D E F G H I J K L M N O P Q R S T U V W X Y Z

Bloc Party - This Modern Love Acoustic tab

Intro
E|--------------------------------------------------------------------|
B|--------------------------------------------------------------------|
G|-----------------------------------0---0---0---0---2---2---2---2----|
D|--2---2---2---2---2---2---2---2--2---2---2---2---3---3---3---3------|
A|3---3---3---3---3---3---2---2---------------------------------------|
E|--------------------------------------------------------------------|

E|--------------------------------------------------------------------|
B|--------------------------------------------------------------------|
G|--------------------------------------------------------------------|
D|--2---2---2---2---2---2---2---2---2---2---2---2---------------------|
A|3---3---3---3---3---3---2---2---0---0---0---0-----------------------|
E|--------------------------------------------------------------------|

Verse
E|--------------------------------------------------------------------|
B|1-------1-------0-------1-------1-------1-------0-------1-----------|
G|----0-------0-------0-------0-------0-------0-------0-------0-------|
D|----------------------------------2---2---2---2---3---3---3---3-----|
A|--3---3---3---3---3---3---2---2-------------------------------------|
E|--------------------------------------------------------------------|

E|--------------------------------------------------------------------|
B|1-------1-------0-------1-------1-------1---------------------------|
G|----0-------0-------0-------0-------0-------0-----------------------|
D|--------------------------------------------------------------------|
A|--3---3---3---3---3---3---2---2---0---0---0---0---------------------|
E|--------------------------------------------------------------------|

Chorus
e|---0-3-1-0---0-----------0-3-1-0------0-------0-3-1-0---0-------------1-0-3--|
B|---1-------3---1---------1-------3---1--1-1---1-------3---1------------------|
G|---2-------------0-0-0---0----------2----2----2-------------0-0-0---0--------|
D|---2-------------0-0-0---2---------0----------2-------------0-0-0--2---------|
A|-0-0-------------2-2-2-3-3------------------0-0-------------2-2-2-3----------|
E|-----------------3-3-3--------------------------------------3-3-3------------|

Bridge
e|----------------------------------------------|
B|-8--8--8--8--8--8--8--8--8--8--8--8--8--8--8--|
G|-9--9--9--10-10-10-9--9--9--10-10-10-9--9--10-|
D|-10-10-10-10-10-10-10-10-10-10-10-10-10-10-10-| }
A|-0--0--0--0--0--0--0--0--0--0--0--0--0--0--0--| }
E|----------------------------------------------| }
                                                  }Repeat x2
e|----------------------------------------------| }
B|-8--8--8--8--8--8--8--8--8--8--8--8--8--8--8--| }
G|-9--9--9--10-10-10-9--9--9--10-10-10-9--9--10-| }
D|-10-10-10-10-10-10-10-10-10-10-10-10-10-10-10-| 
A|-8--8--8--8--8--8--8--8--8--8--8--8--8--8--8--| 
E|----------------------------------------------| 


e|----------------------------------------------|
B|-8--8--8--8--8--8--8--8--8--8--8--8--8--8--8--|
G|-9--9--9--10-10-10-9--9--9--10-10-10-9--9--10-|
D|-10-10-10-10-10-10-10-10-10-10-10-10-10-10-10-|
A|-0--0--0--0--0--0--0--0--0--0--0--0--0--0--0--|
E|----------------------------------------------|

e|----------------------------------------------|
B|----------------------------------------------|
G|-12-12-12-12-12-12-12-12-12-12-12-12-12-12-12-|
D|-10-10-10-10-10-10-10-10-10-10-10-10-10-10-10-|
A|-8--8--8--8--8--8--8--8--8--8--8--8--8--8--8--|
E|----------------------------------------------|

e|----------------------------------------------|
B|-8--8--8--8--8--8--8--8--8--8--8--8--8--8--8--|
G|-9--9--9--9--9--9--9--9--9--9--9--9--9--9--9--|
D|-10-10-10-10-10-10-10-10-10-10-10-10-10-10-10-|
A|-7--7--7--7--7--7--7--7--7--7--7--7--7--7--7--|
E|----------------------------------------------|

e|-------------------------------------------------|
B|-8--8--8--8--8--8--8--8--12-12-12-12-12-12-12-12-|
G|-9--9--9--9--10-10-10-10-12-12-12-12-12-12-12-12-|
D|-10-10-10-10-10-10-10-10-12-12-12-12-12-12-12-12-|
A|-8--8--8--8--8--8--8--8--10-10-10-10-10-10-10-10-|
E|-------------------------------------------------|

Outro
e|-8--8--8--8--8--8--8--8--8--8--8--8--------------|
B|-8--8--8--8--8--8--8--8--8--8--8--8--8--8--8--8--|
G|-9--9--9--9--9--9--9--9--9--9--9--9--9--9--9--9--|
D|-10-10-10-10-10-10-10-10-10-10-10-10-10-10-10-10-|
A|-10-10-10-10-10-10-10-10-10-10-10-10-7--7--7--7--|
E|-8--8--8--8--8--8--8--8--8--8--8--8--------------|

e|-------------------------------------------------|
B|-8--8--8--8--8--8--8--8--8--8--8--8--8--8--8--8--|
G|-9--9--9--9--9--9--9--9--9--9--9--9--7--7--7--7--|
D|-10-10-10-10-10-10-10-10-10-10-10-10-9--9--9--9--|
A|-8--8--8--8--8--8--8--8--8--8--8--8--10-10-10-10-|
E|-------------------------------------------------|

E|--------------------------------------------------------------------|
B|--------------------------------------------------------------------|
G|-----------------------------------0---0---0---0---2---2---2---2----|
D|--2---2---2---2---2---2---2---2--2---2---2---2---3---3---3---3------|
A|3---3---3---3---3---3---2---2---------------------------------------|
E|--------------------------------------------------------------------|

E|-----------------------------------------------------------------0--|
B|-----------------------------------------------------------------1--|
G|-----------------------------------------------------------------0--|
D|--2---2---2---2---2---2---2---2---2---2---2---2---2---2---2---2--2--|
A|3---3---3---3---3---3---2---2---0---0---0---0---2---2---2---2----3--|
E|--------------------------------------------------------------------|



Tap to rate this tab
# A B C D E F G H I J K L M N O P Q R S T U V W X Y Z