Guitaretab - guitar tabs
Song name
# A B C D E F G H I J K L M N O P Q R S T U V W X Y Z

Bloc Party - One Month Off tab

Intro/Verse
e|-----------------|
B|-----------------|
G|-----109------(7)|
D|77---109-1010-(7)|
A|77---8-7-1010-(5)|
E|55-------8-8-----|
Play notes in brackets every other time


Chorus (Kele)
e|--------------------|on last|
B|--------------------|time---|
G|----------1010------|7~-----|
D|77--1010--1010--1010|7~-----|
A|77--1010--8-8---1010|5~-----|
E|55--8-8---------8-8-|-------|

Chorus (Russell)
I'm not sure if this is actually played,but I can hear something played over the chorus, 
I think this is it.
e|3-0-1-0-1-0--|------|
B|------------1|3~----|
G|-------------|on----|
D|-------------|-last-|
A|-------------|--time|
E|-------------|------|

Verse 2
Kele plays intro riff.
Russell plays this, with some effects + Tremolo Picking (I think)
e|3---------------------/15-------|
B|--------------------------------|
G|--------------------------------|
D|--------------------------------|
A|--------------------------------|
E|--------------------------------|

Towards the end, Russell's part changes to...
Russell:
e|3-1-3-1-3-0-3-0-3-1-3-1-3-0-3-0-3-1-3-1-7777|
B|--------------------------------------------|
G|--------------------------------------------|
D|--------------------------------------------|
A|--------------------------------------------|
E|--------------------------------------------|
[ Tab from: http://www.guitaretab.com/b/bloc-party/113933.html ]
I'm not sure what Kele plays, it could be the same as Russell, but if it isn't, I'm not 
what it is :(

"If you need time"
Kele
e|--------------------------------------------------|
B|--------------------------------------------------|
G|----------1010------------1010------------1010--7~|
D|77--1010--1010--77--1010--1010--77--1010--1010--7~|
A|77--1010--8-8---77--1010--8-8---77--1010--8-8---5~|
E|55--8-8---------55--8-8---------55--8-8-----------|

I'm not sure what Russell plays in this bit, sorry :(

Chorus Key-Change
Kele
e|----------------------|-----|
B|----------------------|-----|
G|----------1212--------|9~---|
D|99--1212--1212--1212--|9~---|
A|99--1212--1010--1212--|7~---|
E|77--1010--------1010--|-----|

If you want to play the riff I tabbed, it would change to.....
Russell
e|5-2-3-2-3-2--|-----|
B|------------3|5~---|
G|-------------|-----|
D|-------------|-----|
A|-------------|-----|
E|-------------|-----|

Solo
Kele plays the Key-Change Chorus underneath the solo.

If I'm honest, I havent got a clue about the solo, will figure it out later.

Until the end, both parts
e|--|
B|--|
G|--|
D|99|
A|99|
E|77|x3

e|------------------|
B|------------------|
G|------------------|
D|5-4-3-2----9~-----|
A|-----------9~-----|
E|3-2-1-0----7~-----|

Thats all. Will try and tab the solo soon, but its a bit of a pain to work out, please 
and comment, if you have know one of the bits I missed out, please correct me.

Cheers!!
Related for One Month Off tab