Guitaretab - guitar tabs
Song name
# A B C D E F G H I J K L M N O P Q R S T U V W X Y Z

Bloc Party - Ion Square tab

very basic tab, definately not 100 percent but it should be a start for someone who can
alot better than i can.

verses
i think this is keyboard.
Pick as many times as you feel necessary i'm just being lazy.
-------------------------------------------------|
-6-6-6-6-8-8----6-6-6-6-8-8----------------------|
-------------------------------------------------|
-------------------------------------------------|
-------------------------------------------------|
-------------------------------------------------|

-------------------------------------------------|
-3-3-3-3-5-5----3-3-3-3-5-5----------------------|
-------------------------------------------------|
-------------------------------------------------|
-------------------------------------------------|
-------------------------------------------------|

russell starts playing this somewhere through the verse
[ Tab from: http://www.guitaretab.com/b/bloc-party/114015.html ]
-----5-----5-----5-8-6-5-------------------------|
-6-8---6-8---6-8---------------------------------|
-------------------------------------------------|
-------------------------------------------------|
-------------------------------------------------|
-------------------------------------------------|
over and over.
chorus

this is not 100 percent accurate. when the live version comes out it'll be alot easier 
figure out.

--------------------------------------------------|
-6-6-6-6--8-8--10-10--13-13-----------------------|
--------------------------------------------------|
--------------------------------------------------|
--------------------------------------------------|
--------------------------------------------------|

------------------------------------------------|
-6-6-6-6--8-8--10-10--5-5-----------------------|
------------------------------------------------|
------------------------------------------------|
------------------------------------------------|
------------------------------------------------|

around 5:10

--------------------------------------------------------------------|
-6---6---6---6----8-----6---6---6---6--10---------------------------|
--------------------------------------------------------------------|
--------------------------------------------------------------------|
--------------------------------------------------------------------|
--------------------------------------------------------------------|

thanks for looking...
Related for Ion Square tab