Song name
# A B C D E F G H I J K L M N O P Q R S T U V W X Y Z

Bloc Party - Biko Acoustic tab

                       Tabbed By: Mark Peters
                  Email: markpeterz@hotmail.co.uk


This is a song that came out two days ago on the new 'Intimacy' album.

It's pretty easy to play as it's the same all the way through. It can probably be played 
variety of ways, this is the easiest way i figured out to play it.

The best fingering structure is to use your middle and pinky finger for the first chord 
that leaves your index finger free to apply on the 1st fret B string when it comes to 
the second pattern.

Tuning: Standard

Capo: 5th Fret

e|-------------------------------------------------------------------------|
B|------0------0------------0-----0----------------------------------------|
G|----4---4------4--------2---2-----2------(x3)----------------------------|
D|--2-------2------2----0-------0-----0------------------------------------|
A|-------------------------------------------------------------------------|
E|-------------------------------------------------------------------------|

e|-------------------------------------------------------------------------|
B|-------1-----1-----------0-----0-----------------------------------------|
G|-----4---4-----4-------4---4-----4---------------------------------------|
D|---2-------2-----2---2-------2-----2-------------------------------------|
A|-------------------------------------------------------------------------|
E|-------------------------------------------------------------------------|
Tap to rate this tab
# A B C D E F G H I J K L M N O P Q R S T U V W X Y Z