Guitaretab - guitar tabs
Song name
# A B C D E F G H I J K L M N O P Q R S T U V W X Y Z

Bloc Party - The Marshals Are Dead tab

ok this is my first tab and i had to do it for an awesome band.
This is as best as i got it.
Listen to the song to get the timing right.
Please Comment


--------------------------------|--------------------------|
--------------------------------|--------------------------|
--------------------------------|--------------------------|
-12-12-12-12-12-12-14-14-14-1414|-12-12-12-12-10-10-10-1010|  x6
-12-12-12-12-12-12-14-14-14-1414|-12-12-12-12-10-10-10-1010|
-10-10-10-10-10-10-12-12-12-1212|-10-10-10-10-8- 8- 8- 8--8|
                                            
                   12's and 14's               10's
Chorus thing
[ Tab from: http://www.guitaretab.com/b/bloc-party/115229.html ]
Rhythm [optional]
----------------------|-----------------|
----------------------|-----------------|
----------------------|-----------------|
-9-9-9-9-9-99-10-11-11|-9-9-9-9-9-99-7-6|
-9-9-9-9-9-99-10-11-11|-9-9-9-9-9-99-7-6|
-7-7-7-7-7-77-8- 9 -9 |-7-7-7-7-7-77-5-4|


Lead

---------------------------|---------------------------|
---------------------------|---------------------------|
-9--9--9--9--9--9-9--10--11-11| 9--9--9--9--9--9--9--8--7-|
-9--9--9--9--9--9-9--10--11-11| 9--9--9--9--9--9--9--8--7-|
(7)(7)(7)(7)(7)(7)(7)(8)(9)(9)|(7)(7)(7)(7)(7)(7)(7)(6)(5)|
---------------------------|---------------------------|

Bridge

Rhythm[Distortion]

-------------------------------------------------------------|
-------------------------------------------------------------|
-9--9-------9--9-------9--9-------9--9-------9--9-------7--7-|
-9--9-------9--9-------9--9-------9--9-------9--9-------7--7-|
(9)(9)-----(9)(9)-----(9)(9)-----(9)(9)-----(9)(9)-----(7)(7)|
-------------------------------------------------------------|




Related for The Marshals Are Dead tab