Song name
# A B C D E F G H I J K L M N O P Q R S T U V W X Y Z

Bloc Party - Letter To My Son tab

At the moment, this is just Russell's part 
but I'll try and figure out Keles when i 
have more time

Intro
e|---------------------------------------------|
B|----10---------------------------------------|
G|-------11-12-11-9-11-------------------------|
D|9-9------------------9-9-12-----12-9-12-9----|
A|----------------------------9-9-----------9-9|
E|---------------------------------------------|

e|--------------------------------------------|
B|----10--------------------------------------|
G|-------11-12-11-9-11-12-12-11-11-9----9-11--|
D|9-9--------------------------------12------9|
A|--------------------------------------------|
E|--------------------------------------------|

Second Chorus
e|--------10-9------------------10-9---------|
B|-------------10--------------------10------|
G|-----11---------11-12------11---------11-12|
D|9/12------------------9/12-----------------|
A|-------------------------------------------|
E|-------------------------------------------|

e|-------------------------------------|
B|-----12-12-10------------------------|
G|--11----------9/11-------------------|
D|9------------------12-12-11----------|
A|----------------------------12-12-12-|
E|-------------------------------------|

Solo - Starts at about 3.04
e|----------------------------------------------------------------------|
B|--10------10---------------10-----------------------------------------|
G|-----11------11----9----------11-------------------------------------9|
D|9-------9------------11-----------------12-------12-------12----12----|
A|----------------12------12--------12-10----12-10---12-10----10----12--|
E|----------------------------------------------------------------------|

Repeat until...

Outro
e|17----15\--10-10-12-14-------------------10-9---------|
B|---15------------------12----------10---------10------|
G|--------------------------11-11-12---------------11-12|
D|------------------------------------------------------|
A|------------------------------------------------------|
E|------------------------------------------------------|

End pART
e|------------9---------------|
B|---------10------------10---|
G|11-11-12------11-11-12------|
D|--------------------------12|
A|----------------------------|
E|----------------------------|
Tap to rate this tab
 
# A B C D E F G H I J K L M N O P Q R S T U V W X Y Z