Guitaretab - guitar tabs
Song name
# A B C D E F G H I J K L M N O P Q R S T U V W X Y Z

Bloc Party - Your Visits Are Getting Shorter tab

Standard Tuning

Main Riff (Played during first verse and choruses)
 E --------------------------------|------------------------|
 B --------------------------------|------------------------|
 G --------------------------------|------------------------|
 D ------------2-2-3-3-----5-5-----|------------2-2---------|
 A 0-0-2-2-3-3---------3-3-----3-3-|0-0-2-2-3-3-------3---5-|
 E --------------------------------|----------------1---3---|
[ Tab from: ]
Intro/Verse (It's a synth or something, but I think these are the notes on the guitar)
 E --------------------------------------------------------------|
 B --------------------------------------------------------------|
 G ----------------5-5-5-5-5-5-5-5-4-4-4-4-4-4-4-4---------------|
 D ------------------------------------------------5-5-5-5-5-5-5-|
 A 3-3-3-3-3-3-3-3-----------------------------------------------|
 E --------------------------------------------------------------|

Violin Part Throughout Song
 E --------------------------------|
 B --------------------------------|
 G 5-4-5-7-5-4-5-7-5-4-5-7-5-4-5-7-|
 D --------------------------------|
 A --------------------------------|
 E --------------------------------|

Bridge/Outro Chords
     A5 F5 C5 G5
     A5 F5 C5 D5 E5F5
Related for Your Visits Are Getting Shorter tab