Song name
# A B C D E F G H I J K L M N O P Q R S T U V W X Y Z

Bloc Party - Idea For A Story tab

----------------------------------------------------------------------------
                        IDEA FOR A STORY - Bloc Party
----------------------------------------------------------------------------

Tabbed by: Lewis James (Dextrous)
Email: lewisjamesuk@btinternet.com

Tuning: EADGBe (Standard)

Intro:

e|-------|
B|-------|
G|-------|
D|-------|
A|-6--*--|
E|-------|      x 8

Verse:

e|--------------------------|
B|--------------------------|
G|-----8-----------8--4--6--|
D|--8-----4--6--8-----------|
A|--6-----6-----6-----6-----|
E|--------------------------|

Let the root note ring (5th string, fret 6).

(Chords - D#m F# G#, D#m B C#)

Chorus:

e|-----------------------------------------------------------|
B|-----------------------------------------------------------|
G|-----------------------------------------------------------|
D|-------4--1---------4--1-----------4--1--------------------|
A|--2------------2-------------2---------------4-------------|
E|----------------------------------------------------4------|

(Chords - B, D#m, B, D#m, B, D#m, C#, G#)

| /  slide up
| \  slide down
| h  hammer-on
| p  pull-off
| ~  vibrato
| +  harmonic
| x  Mute note
============================================================================
Tap to rate this tab
# A B C D E F G H I J K L M N O P Q R S T U V W X Y Z