Guitaretab - guitar tabs
Song name
# A B C D E F G H I J K L M N O P Q R S T U V W X Y Z

Bloc Party - Skeleton tab

This is Bloc Party with their best song skeleton,although thats what i think

ok here we go.....


Guitar 1:

e|-----------------------------------|
B|----------10h6p10-----10h6p10--6---|
G|-----------------------------------|
D|-----------------------------------|
A|-----------------------------------|
E|-----------------------------------|



Guitar 2:
[ Tab from: http://www.guitaretab.com/b/bloc-party/136804.html ]
e|----5---5------5---5---5-----------|
B|--6---6---5------------------------|
G|-------------5---5---5---5---------|
D|-----------------------------------|
A|-----------------------------------|
E|-----------------------------------|



Guitar 1:

e|-----------------------------------|
B|----------10h6p10-----10h6p10--6---|
G|-----------------------------------|
D|-----------------------------------|
A|-----------------------------------|
E|-----------------------------------|


Guitar 2:

e|------------8---------------8------|
B|--------6-------6-------6-----6----|
G|------5---5---5-------5---5--------|
D|-----------------------------------|
A|----5---------------5--------------|
E|-----------------------------------|

And thats about it...

Enjoy!
Related for Skeleton tab