Song name
# A B C D E F G H I J K L M N O P Q R S T U V W X Y Z

Bloc Party - Say It Right tab

This is off The Live Lounge Album, Brilliant Cover Quite Easy Too


Main Riff
L|  W            W            W            W         |
e|------------|------------|------------|------------|
B|--8---------|--7---------|--8---------|--5-------o-|
G|--9---------|--7---------|--5---------|--5---------| Repeat To Interlude
D|--9---------|--7---------|--5---------|--7---------|
A|------------|------------|------------|----------o-|
E|------------|------------|------------|------------|

Interlude/Last Chorus
| Q  Q  Q  Q   Q  Q  Q  Q   Q  Q  Q  Q   Q  Q  Q  Q   |
|-------7----|-------7----|-------7----|----8--7------|
|-o--8-----8-|----8-----8-|----8-----8-|----------8-o-|
|-9----------|-9----------|-9----------|-9------------| Repeat To Fade
|------------|------------|------------|--------------|
|-o----------|------------|------------|------------o-|
|------------|------------|------------|--------------|

Thats it, simple enough, its a cover of the Nelly Furtardo Song by the Same Name.

Time Signatures:
W = Whole Bar or 1/1
Q = Quarter Bar or 1/4
Tap to rate this tab
# A B C D E F G H I J K L M N O P Q R S T U V W X Y Z