Guitaretab - guitar tabs
Song name
# A B C D E F G H I J K L M N O P Q R S T U V W X Y Z

Bloc Party - Signs Live tab

Russell (Lead Guitar)
                     Q    E   Q    Q    E     Q    E  Q     Q    E   
E||-------|-------|------------------------|------------------------|
B||-------|-------|------------------------|---------------12-------|
G||-------|-------|----------11----9-------|----------9-------------|
D||-------|-------|--9---------------------|--9---------------------|
A||-------|-------|------------------------|------------------------|
E||-------|-------|------------------------|------------------------|


  Q    E   Q    Q    E     Q    E  Q     Q    E     Q    E   Q    Q    E   
------------------------|------------------------|------------------------|
------------------------|---------------12-------|------------------------|
----------11----9-------|----------9-------------|----------11----9-------|
--9---------------------|--9---------------------|--9---------------------|
------------------------|------------------------|------------------------|
------------------------|------------------------|------------------------|


  Q    E  Q     Q    E     Q    E   Q    Q    E     Q    E  Q     Q    E   
------------------------|------------------------|------------------------|
---------------12-------|------------------------|---------------12-------|
----------9-------------|----------11----9-------|----------9-------------|
--9---------------------|--9---------------------|--9---------------------|
------------------------|------------------------|------------------------|
------------------------|------------------------|------------------------|


  Q    E   Q    Q    E     Q    E  Q     Q    E     Q    E   Q    Q    E   
------------------------|------------------------|------------------------|
------------------------|---------------12-------|------------------------|
----------11----9-------|----------9-------------|----------11----9-------|
--9---------------------|--9---------------------|--9---------------------|
------------------------|------------------------|------------------------|
------------------------|------------------------|------------------------|


  Q    E  Q     Q    E     Q    E   Q    Q    E      Q    E  Q     Q    E   
------------------------|------------------------|-------------------------|
---------------12-------|--9---------------------|--10-------9-------------|
----------9-------------|----------11----9-------|----------------11-------|
--9---------------------|------------------------|-------------------------|
------------------------|------------------------|-------------------------|
------------------------|------------------------|-------------------------|


  Q    E   Q    Q    E      Q    E  Q     Q    E     Q    E   Q    Q    E   
------------------------|-------------------------|------------------------|
--9---------------------|--10-------9-------------|------------------------|
----------11----9-------|----------------11-------|----------11----9-------|
------------------------|-------------------------|--9---------------------|
------------------------|-------------------------|------------------------|
------------------------|-------------------------|------------------------|


  Q    E  Q     Q    E     Q    E   Q    Q    E     Q    E  Q     Q    E   
------------------------|------------------------|------------------------|
---------------12-------|------------------------|---------------12-------|
----------9-------------|----------11----9-------|----------9-------------|
--9---------------------|--9---------------------|--9---------------------|
------------------------|------------------------|------------------------|
------------------------|------------------------|------------------------|


  Q    E   Q    Q    E      Q    E  Q     Q    E     Q    E   Q    Q    E   
------------------------|-------------------------|------------------------|
--9---------------------|--10-------9-------------|--9---------------------|
----------11----9-------|----------------11-------|----------11----9-------|
------------------------|-------------------------|------------------------|
------------------------|-------------------------|------------------------|
------------------------|-------------------------|------------------------|


   Q    E  Q     Q    E     Q    Q     E  E  E  E     Q    Q     Q     Q     
-------------------------|-------------------------|------------------------|
--10-------9-------------|-------------------------|------------------12----|
----------------11-------|-------9----11--9-----9--|-------9----11----------|
-------------------------|--9----------------9-----|--9---------------------|
-------------------------|-------------------------|------------------------|
-------------------------|-------------------------|------------------------|


  Q    Q     E  E  E  E     Q    Q     Q     Q       Q    Q     E  E  E  E   
-------------------------|------------------------|-------------------------|
-------------------------|------------------12----|-------9-----------------|
-------9----11--9-----9--|-------9----11----------|------------11--9-----9--|
--9----------------9-----|--9---------------------|--9----------------9-----|
-------------------------|------------------------|-------------------------|
-------------------------|------------------------|-------------------------|


  Q     Q    E   E  E   E     Q    Q     E  E  E  E   
---------------------------|-------------------------|
-------10----9-------------|-------9-----------------|
----------------11--9--11--|------------11--9-----9--|
--9------------------------|--9----------------9-----|
---------------------------|-------------------------|
---------------------------|-------------------------|


  Q     Q    E   E  E   E     Q    Q     E  E  E  E     Q    Q     Q     Q     
---------------------------|-------------------------|------------------------|
-------10----9-------------|-------------------------|------------------12----|
----------------11--9--11--|-------9----11--9-----9--|-------9----11----------|
--9------------------------|--9----------------9-----|--9---------------------|
---------------------------|-------------------------|------------------------|
---------------------------|-------------------------|------------------------|


  Q    Q     E  E  E  E     Q    Q     Q     Q       Q    Q     E  E  E  E   
-------------------------|------------------------|-------------------------|
-------------------------|------------------12----|-------9-----------------|
-------9----11--9-----9--|-------9----11----------|------------11--9-----9--|
--9----------------9-----|--9---------------------|--9----------------9-----|
-------------------------|------------------------|-------------------------|
-------------------------|------------------------|-------------------------|


  Q     Q    E   E  E   E     Q    Q     E  E  E  E   
---------------------------|-------------------------|
-------10----9-------------|-------9-----------------|
----------------11--9--11--|------------11--9-----9--|
--9------------------------|--9----------------9-----|
---------------------------|-------------------------|
---------------------------|-------------------------|


  Q     Q    E   E  E   E     E  E  E  E  E  E  E  E   
---------------------------|--9-----7-----4-----2-----|
-------10----9-------------|-----9-----7-----5-----2--|
----------------11--9--11--|--------------------------|
--9------------------------|--------------------------|
---------------------------|--------------------------|
---------------------------|--------------------------|


  E  E  E  E  E  E  E  E     E  E  E  E  E  E  E  E     Q    E  E  E  E  E  E   
--9-----7-----4-----2-----|--9-----7-----4-----2-----|--5----4--2--0-----0--2--|
-----9-----7-----5-----2--|-----9-----7-----5-----2--|----------------2--------|
--------------------------|--------------------------|-------------------------|
--------------------------|--------------------------|-------------------------|
--------------------------|--------------------------|-------------------------|
--------------------------|--------------------------|-------------------------|


  E  E  E  E  E  E  E  E     E  E  E  E  E  E  E  E   
--9-----7-----4-----2-----|--9-----7-----4-----2-----|
-----9-----7-----5-----2--|-----9-----7-----5-----2--|
--------------------------|--------------------------|
--------------------------|--------------------------|
--------------------------|--------------------------|
--------------------------|--------------------------|


  E  E  E  E  E  E  E  E     Q    E  E  E  E  E  E     E  E  E  E  E  E  E  E   
--9-----7-----4-----2-----|--5----4--2--0-----0--2--|--9-----7-----4-----2-----|
-----9-----7-----5-----2--|----------------2--------|-----9-----7-----5-----2--|
--------------------------|-------------------------|--------------------------|
--------------------------|-------------------------|--------------------------|
--------------------------|-------------------------|--------------------------|
--------------------------|-------------------------|--------------------------|


  E  E  E  E  E  E  E  E     E  E  E  E  E  E  E  E     Q    E  E  E  E  E  E   
--9-----7-----4-----2-----|--9-----7-----4-----2-----|--5----4--2--0-----0--2--|
-----9-----7-----5-----2--|-----9-----7-----5-----2--|----------------2--------|
--------------------------|--------------------------|-------------------------|
--------------------------|--------------------------|-------------------------|
--------------------------|--------------------------|-------------------------|
--------------------------|--------------------------|-------------------------|


  E  E  E  E  E  E  E  E     E  E  E  E  E  E  E  E   
--9-----7-----4-----2-----|--9-----7-----4-----2-----|
-----9-----7-----5-----2--|-----9-----7-----5-----2--|
--------------------------|--------------------------|
--------------------------|--------------------------|
--------------------------|--------------------------|
--------------------------|--------------------------|


  E  E  E  E  E  E  E  E     Q    E  E  E  E  E  E     E  E  E  E  E  E  E  E   
--9-----7-----4-----2-----|--5----4--2--0-----0--2--|--9-----7-----4-----2-----|
-----9-----7-----5-----2--|----------------2--------|-----9-----7-----5-----2--|
--------------------------|-------------------------|--------------------------|
--------------------------|-------------------------|--------------------------|
--------------------------|-------------------------|--------------------------|
--------------------------|-------------------------|--------------------------|


  E  E  E  E  E  E  E  E     E  E  E  E  E  E  E  E     Q    E  E  E  E  E  E   
--9-----7-----4-----2-----|--9-----7-----4-----2-----|--5----4--2--0-----0--2--|
-----9-----7-----5-----2--|-----9-----7-----5-----2--|----------------2--------|
--------------------------|--------------------------|-------------------------|
--------------------------|--------------------------|-------------------------|
--------------------------|--------------------------|-------------------------|
--------------------------|--------------------------|-------------------------|
this section is played with what sounds like a wah wah pedal (volumes going down and up)

                  Q    E  E  E  E  E  E     Q    E  E  E  E  E  E   
-------|-------|-------------------------|-------------------------|
-------|-------|-------------------------|-------------------------|
-------|-------|-------------4-----------|-------------4-----------|
-------|-------|-------2-----------2-----|-------2-----------2-----|
-------|-------|--4-------4-----4-----4--|--4-------4-----4-----4--|
-------|-------|-------------------------|-------------------------|


  Q    E  E  E  E  E  E     Q    E  E  E  E  E  E     Q    E  E  E  E  E  E   
-------------------------|-------------------------|-------------------------|
-------------------------|-------------------------|-------------------------|
-------------4-----------|-------------4-----------|-------------4-----------|
-------2-----------2-----|-------2-----------2-----|-------2-----------2-----|
--4-------4-----4-----4--|--4-------4-----4-----4--|--4-------4-----4-----4--|
-------------------------|-------------------------|-------------------------|


  Q    E  E  E  E  E  E     E  E  E  E  E  E  E  E   
-------------------------|--------------------------|
-------------------------|--------------------------|
-------------4-----------|--6-----6-----8-----8-----|
-------2-----------2-----|-----6-----6-----9-----9--|
--4-------4-----4-----4--|--------------------------|
-------------------------|--------------------------|


  E  E  E  E   E   E   E   E      Q    E  Q     Q    E   
------------------------------|-------------------------|
--------------12------12------|--10-------9-------------|
--9-----9---------11------11--|----------------11-------|
-----9-----9------------------|-------------------------|
------------------------------|-------------------------|
------------------------------|-------------------------|


  Q    E  Q     Q    E      Q    E  Q     Q    E     Q    E  Q     Q    E   
------------------------|-------------------------|------------------------|
------------------------|--10-------9-------------|------------------------|
--9-------9----11-------|----------------11-------|--9-------9----11-------|
------------------------|-------------------------|------------------------|
------------------------|-------------------------|------------------------|
------------------------|-------------------------|------------------------|


  E  E  E  E   E   E   E   E      E   E   E   E   E   E   E   E   
--9-----9-----11------11------|--12------12------19------19------|
-----9-----9------12------12--|------12------12------17------17--|
------------------------------|----------------------------------|
------------------------------|----------------------------------|
------------------------------|----------------------------------|
------------------------------|----------------------------------|


   Q    E   Q     Q    E      Q    E   Q     Q    E   
--17-------16----14-------|--12-------12----14-------|
--------------------------|--------------------------|
--------------------------|--------------------------|
--------------------------|--------------------------|
--------------------------|--------------------------|
--------------------------|--------------------------|


   Q    E   Q    E   E  E     E   E  Q     Q     Q     
--17-------16-------17-----|-----16-------14----12----|
---------------------------|--------------------------|
---------------------------|--------------------------|
---------------------------|--------------------------|
---------------------------|--------------------------|
---------------------------|--------------------------|


   E   E   E   E   E   E   E   E      E   E   E   E   E   E   E   E   
--12------12------12------14------|--11------11------11------11------|
------12------12------12------12--|------12------12------12------12--|
----------------------------------|----------------------------------|
----------------------------------|----------------------------------|
----------------------------------|----------------------------------|
----------------------------------|----------------------------------|


  E  E  E  E   E   E   E   E      E   E   E   E   E   E   E   E   
--9-----9-----11------11------|--12------12------19------19------|
-----9-----9------12------12--|------12------12------17------17--|
------------------------------|----------------------------------|
------------------------------|----------------------------------|
------------------------------|----------------------------------|
------------------------------|----------------------------------|


   Q    E   Q     Q    E      Q    E   Q     Q    E   
--17-------16----14-------|--12-------12----14-------|
--------------------------|--------------------------|
--------------------------|--------------------------|
--------------------------|--------------------------|
--------------------------|--------------------------|
--------------------------|--------------------------|

[ Tab from: http://www.guitaretab.com/b/bloc-party/174097.html ]
   Q    E   Q    E   E  E     E   E  Q     Q     Q     
--17-------16-------17-----|-----16-------14----12----|
---------------------------|--------------------------|
---------------------------|--------------------------|
---------------------------|--------------------------|
---------------------------|--------------------------|
---------------------------|--------------------------|


   E   E   E   E   E   E   E   E      E   E   E   E   E   E   E   E   
--12------12------12------14------|--11------11------11------11------|
------12------12------12------12--|------12------12------12------12--|
----------------------------------|----------------------------------|
----------------------------------|----------------------------------|
----------------------------------|----------------------------------|
----------------------------------|----------------------------------|


  E  E  E  E   E   E   E   E      E   E   E   E   E   E   E   E   
--9-----9-----11------11------|--12------12------19------19------|
-----9-----9------12------12--|------12------12------17------17--|
------------------------------|----------------------------------|
------------------------------|----------------------------------|
------------------------------|----------------------------------|
------------------------------|----------------------------------|


   Q    E   Q     Q    E      Q    E   Q     Q    E   
--17-------16----14-------|--12-------12----14-------|
--------------------------|--------------------------|
--------------------------|--------------------------|
--------------------------|--------------------------|
--------------------------|--------------------------|
--------------------------|--------------------------|


   Q    E   Q    E   E  E     E   E  Q     Q     Q     
--17-------16-------17-----|-----16-------14----12----|
---------------------------|--------------------------|
---------------------------|--------------------------|
---------------------------|--------------------------|
---------------------------|--------------------------|
---------------------------|--------------------------|


   E   E   E   E   E   E   E   E      E   E   E   E   E   E   E   E   
--12------12------12------14------|--11------11------11------11------|
------12------12------12------12--|------12------12------12------12--|
----------------------------------|----------------------------------|
----------------------------------|----------------------------------|
----------------------------------|----------------------------------|
----------------------------------|----------------------------------|


   W                  
--12----------------||
--------------------||
--------------------||
--------------------||
--------------------||
--------------------||

Kele (Guitar With -1 Octave To Make It sound Like A Bass guitar)
                                                     H        H         
E||-------|-------|-------|-------|-------|-------|--------------------|
B||-------|-------|-------|-------|-------|-------|--------------------|
G||-------|-------|-------|-------|-------|-------|--------------------|
D||-------|-------|-------|-------|-------|-------|--------------------|
A||-------|-------|-------|-------|-------|-------|--------------------|
E||-------|-------|-------|-------|-------|-------|--9--------7--------|


  H        H           H        H           H         H         
--------------------|--------------------|---------------------|
--------------------|--------------------|---------------------|
--------------------|--------------------|---------------------|
--------------------|--------------------|---------------------|
--------------------|--------------------|---------------------|
--5--------0--------|--9--------7--------|--5--------12--------|


  H        H           H        H           H        H         
--------------------|--------------------|--------------------|
--------------------|--------------------|--------------------|
--------------------|--------------------|--------------------|
--------------------|--------------------|--------------------|
--------------------|--------------------|--------------------|
--9--------7--------|--5--------0--------|--9--------7--------|


  H         H           H        H           H        H         
---------------------|--------------------|--------------------|
---------------------|--------------------|--------------------|
---------------------|--------------------|--------------------|
---------------------|--------------------|--------------------|
---------------------|--------------------|--------------------|
--5--------12--------|--9--------7--------|--5--------0--------|


  H        H           H         H           H        H         
--------------------|---------------------|--------------------|
--------------------|---------------------|--------------------|
--------------------|---------------------|--------------------|
--------------------|---------------------|--------------------|
--------------------|---------------------|--------------------|
--9--------7--------|--5--------12--------|--9--------7--------|


  H        H           H        H           H         H         
--------------------|--------------------|---------------------|
--------------------|--------------------|---------------------|
--------------------|--------------------|---------------------|
--------------------|--------------------|---------------------|
--------------------|--------------------|---------------------|
--5--------0--------|--9--------7--------|--5--------12--------|


  H        H           H        H           H        H         
--------------------|--------------------|--------------------|
--------------------|--------------------|--------------------|
--------------------|--------------------|--------------------|
--------------------|--------------------|--------------------|
--------------------|--------------------|--------------------|
--9--------7--------|--5--------0--------|--9--------7--------|


  H         H           H        H           H        H         
---------------------|--------------------|--------------------|
---------------------|--------------------|--------------------|
---------------------|--------------------|--------------------|
---------------------|--------------------|--------------------|
---------------------|--------------------|--------------------|
--5--------12--------|--9--------7--------|--5--------0--------|


  H        H           H         H           H        H         
--------------------|---------------------|--------------------|
--------------------|---------------------|--------------------|
--------------------|---------------------|--------------------|
--------------------|---------------------|--------------------|
--------------------|---------------------|--------------------|
--9--------7--------|--5--------12--------|--9--------7--------|


  H        H           H        H           H         H         
--------------------|--------------------|---------------------|
--------------------|--------------------|---------------------|
--------------------|--------------------|---------------------|
--------------------|--------------------|---------------------|
--------------------|--------------------|---------------------|
--5--------0--------|--9--------7--------|--5--------12--------|


  H        H           H        H           H        H         
--------------------|--------------------|--------------------|
--------------------|--------------------|--------------------|
--------------------|--------------------|--------------------|
--------------------|--------------------|--------------------|
--------------------|--------------------|--------------------|
--9--------7--------|--5--------0--------|--9--------7--------|


  H         H           H        H           H        H         
---------------------|--------------------|--------------------|
---------------------|--------------------|--------------------|
---------------------|--------------------|--------------------|
---------------------|--------------------|--------------------|
---------------------|--------------------|--------------------|
--5--------12--------|--9--------7--------|--5--------0--------|


  H        H           H         H           H        H         
--------------------|---------------------|--------------------|
--------------------|---------------------|--------------------|
--------------------|---------------------|--------------------|
--------------------|---------------------|--------------------|
--------------------|---------------------|--------------------|
--9--------7--------|--5--------12--------|--9--------7--------|


  H        H           H        H           H         H         
--------------------|--------------------|---------------------|
--------------------|--------------------|---------------------|
--------------------|--------------------|---------------------|
--------------------|--------------------|---------------------|
--------------------|--------------------|---------------------|
--5--------0--------|--9--------7--------|--5--------12--------|


  H        H           H        H           H        H         
--------------------|--------------------|--------------------|
--------------------|--------------------|--------------------|
--------------------|--------------------|--------------------|
--------------------|--------------------|--------------------|
--------------------|--------------------|--------------------|
--9--------7--------|--5--------0--------|--9--------7--------|


  H         H           H        H           H        H         
---------------------|--------------------|--------------------|
---------------------|--------------------|--------------------|
---------------------|--------------------|--------------------|
---------------------|--------------------|--------------------|
---------------------|--------------------|--------------------|
--5--------12--------|--9--------7--------|--5--------0--------|


  H        H           H         H           H        H         
--------------------|---------------------|--------------------|
--------------------|---------------------|--------------------|
--------------------|---------------------|--------------------|
--------------------|---------------------|--------------------|
--------------------|---------------------|--------------------|
--9--------7--------|--5--------12--------|--9--------7--------|


  H        H           H        H           H         H         
--------------------|--------------------|---------------------|
--------------------|--------------------|---------------------|
--------------------|--------------------|---------------------|
--------------------|--------------------|---------------------|
--------------------|--------------------|---------------------|
--5--------0--------|--9--------7--------|--5--------12--------|


  H        H           H        H           H        H         
--------------------|--------------------|--------------------|
--------------------|--------------------|--------------------|
--------------------|--------------------|--------------------|
--------------------|--------------------|--------------------|
--------------------|--------------------|--------------------|
--9--------7--------|--5--------0--------|--9--------7--------|


  H         H                                                         
---------------------|-----------|-----------|-----------|-----------|
---------------------|-----------|-----------|-----------|-----------|
---------------------|-----------|-----------|-----------|-----------|
---------------------|-----------|-----------|-----------|-----------|
---------------------|-----------|-----------|-----------|-----------|
--5--------12--------|-----------|-----------|-----------|-----------|


                                                  H        H         
-----------|-----------|-----------|-----------|--------------------|
-----------|-----------|-----------|-----------|--------------------|
-----------|-----------|-----------|-----------|--------------------|
-----------|-----------|-----------|-----------|--------------------|
-----------|-----------|-----------|-----------|--------------------|
-----------|-----------|-----------|-----------|--9--------7--------|


  H        H           H        H           H         H         
--------------------|--------------------|---------------------|
--------------------|--------------------|---------------------|
--------------------|--------------------|---------------------|
--------------------|--------------------|---------------------|
--------------------|--------------------|---------------------|
--5--------0--------|--9--------7--------|--5--------12--------|


  H        H           H        H           H        H         
--------------------|--------------------|--------------------|
--------------------|--------------------|--------------------|
--------------------|--------------------|--------------------|
--------------------|--------------------|--------------------|
--------------------|--------------------|--------------------|
--9--------7--------|--5--------0--------|--9--------7--------|


  H         H           H        H           H        H         
---------------------|--------------------|--------------------|
---------------------|--------------------|--------------------|
---------------------|--------------------|--------------------|
---------------------|--------------------|--------------------|
---------------------|--------------------|--------------------|
--5--------12--------|--9--------7--------|--5--------0--------|


  H        H           H         H           H        H         
--------------------|---------------------|--------------------|
--------------------|---------------------|--------------------|
--------------------|---------------------|--------------------|
--------------------|---------------------|--------------------|
--------------------|---------------------|--------------------|
--9--------7--------|--5--------12--------|--9--------7--------|


  H        H           H        H           H         H         
--------------------|--------------------|---------------------|
--------------------|--------------------|---------------------|
--------------------|--------------------|---------------------|
--------------------|--------------------|---------------------|
--------------------|--------------------|---------------------|
--5--------0--------|--9--------7--------|--5--------12--------|


  H        H           H        H           H        H         
--------------------|--------------------|--------------------|
--------------------|--------------------|--------------------|
--------------------|--------------------|--------------------|
--------------------|--------------------|--------------------|
--------------------|--------------------|--------------------|
--9--------7--------|--5--------0--------|--9--------7--------|


  H         H           H        H           H        H         
---------------------|--------------------|--------------------|
---------------------|--------------------|--------------------|
---------------------|--------------------|--------------------|
---------------------|--------------------|--------------------|
---------------------|--------------------|--------------------|
--5--------12--------|--9--------7--------|--5--------0--------|


  H        H           H         H           H        H         
--------------------|---------------------|--------------------|
--------------------|---------------------|--------------------|
--------------------|---------------------|--------------------|
--------------------|---------------------|--------------------|
--------------------|---------------------|--------------------|
--9--------7--------|--5--------12--------|--9--------7--------|


  H        H           H        H           H         H         
--------------------|--------------------|---------------------|
--------------------|--------------------|---------------------|
--------------------|--------------------|---------------------|
--------------------|--------------------|---------------------|
--------------------|--------------------|---------------------|
--5--------0--------|--9--------7--------|--5--------12--------|


  H        H           H        H                      
--------------------|--------------------|-----------||
--------------------|--------------------|-----------||
--------------------|--------------------|-----------||
--------------------|--------------------|-----------||
--------------------|--------------------|-----------||
--9--------7--------|--5--------0--------|-----------||
Related for Signs Live tab