Guitaretab - guitar tabs
Song name
# A B C D E F G H I J K L M N O P Q R S T U V W X Y Z

Bloc Party - Ion Square Live tab

Love this song.
Tabbed from the Live De La Semaine performance

Guitar 1 - Kele Okereke

Verse 1 and 2
e|---------------------------------------------------------------------------|
B|---------------------------------------------------------------------------|
G|---------------------------------------------------------------------------|
D|---------------------------------------------------------------------------|
A|8--------10-8-------8------------------------------------------------------|
E|-----------------------10---------12--10---------12------------------------|

Chorus
e|---------------------------|
B|---------------------------|
G|---------------------------|
D|---------------------------|
A|3----------1------0--------|
E|-----1---------------------|

Sometimes in Verse 3 it change to
e|-------------------------------------------------------------------------|
B|-------------------------------------------------------------------------|
G|-------------------------------------------------------------------------|
D|-------------------------------------------------------------------------|
A|8-------7---5-----------7----5------------7----8-------------------------|
E|-------------------------------------------------------------------------|

Outro
e|---------------------------------------------------------------------------|
B|---------------------------------------------------------------------------|
G|---------------------------------------------------------------------------|
D|---------------------------------------------------------------------------|
A|----11111------------------------------------------------------------------|
E|1111-----333333333---------------------------------------------------------|

Guitar 2 - Russell Lissack
[ Tab from: http://www.guitaretab.com/b/bloc-party/179042.html ]
Verse 2 - This sort of thing, with a pedal
e|-------------------------------------------|
B|-------------------4-------------------4---|
G|--25--25--25--25--2---25--25--25--25--2----|
D|33--33--33--33--33--33--33--33--33--33-----|
A|-------------------------------------------|
E|-------------------------------------------|

Chorus 1
e|-------------------------------------------------------------------------|
B|1-1-3-5-8-8-10-10-1-1-3-5-8-8-5-5-1-1-3-5-8-8-10-10-1-1-3-5-8-8-8-8------|
G|-------------------------------------------------------------------------|
D|-------------------------------------------------------------------------|
A|-------------------------------------------------------------------------|
E|-------------------------------------------------------------------------|

Verse 2
e|---------------------------------------------------------------------------|
B|---------------------------------------------------------------------------|
G|5-5-5-3-5-5-5-3-2-2-2-2-2-2-2-3--------------------------------------------|
D|-3-3-3-3-3-3-3-3-0-0-0-0-0-0-0-0-------------------------------------------|
A|---------------------------------------------------------------------------|
E|---------------------------------------------------------------------------|

Changes to
e|-----------------|
B|------3-5-5-5-6--|
G|5-5-5------------|
D|-3-3-3-3-3-3-3-3-|
A|-----------------|
E|-----------------|

And
e|------------5-5----|
B|6-6-6-6-8-8--------|
G|-5-5-5-5-5-5-5-5---|
D|-------------------|
A|-------------------|
E|-------------------|

Chorus 2 (not so sure on this part)
e|8-8-8-8-6-6-6-6-5-5-5-5-3-3-8-8----|
B|-8-8-8-8-6-6-6-6-5-5-5-5-3-3-8-8---|
G|-----------------------------------|
D|-----------------------------------|
A|-----------------------------------|
E|-----------------------------------|

Changes to
e|8-----5-8-----5-8-----5-6-5-----|
B|--6-8-----6-8-----6-8-------8-6-|
G|--------------------------------|
D|--------------------------------|
A|--------------------------------|
E|--------------------------------|

Outro
e|----15----15----15------|
B|18----18----18----17-15-|
G|--17----17----17--------|
D|------------------------|
A|------------------------|
E|------------------------|

Enjoy :)
Related for Ion Square Live tab