Song name
# A B C D E F G H I J K L M N O P Q R S T U V W X Y Z

Bloc Party - Ares tab

This song is sick
This is the basis of what he plays,
i tabbed it from the performance on Later
so may be a bit different to the ablum version

Intro/Chorus - All Tremolo
e|-----------------------------|
B|-----/15151515---------------|
G|-----------------------------|
D|00000---------00000/12\\\\\\\|
A|-----------------------------|
E|-----------------------------|

Every 4th time
e|----------------------------------|
B|---------------/15151515----------|
G|----------------------------------|
D|000000/12121212---------/12\\\\\\\|
A|----------------------------------|
E|----------------------------------|

Breakdown - Live, Russell plays these chords with whammy/effects
e|5---3---3---5--|
B|6---5---3---5--|
G|7---5---4---5--|
D|7---5---5---7--|
A|5---3---5---7--|
E|--------3---5--|




Tap to rate this tab
# A B C D E F G H I J K L M N O P Q R S T U V W X Y Z