Guitaretab - guitar tabs
Song name
# A B C D E F G H I J K L M N O P Q R S T U V W X Y Z

Bloc Party - Chinese Burn tab

I love this one :D

Intro
Kele
e|--------------------------------|
B|--77--77--77875---55--55--55--55|
G|44--44--44-----777--77--66--66--|
D|--------------------------------|
A|--------------------------------|
E|--------------------------------|

Russell - Comes in after Kele, I think this is right
e|77--77--77----------------------|
B|--77--77--77875---55--55--55--55|
G|---------------777--77--66--66--|
D|--------------------------------|
A|--------------------------------|
E|--------------------------------|

Verse
Kele changes between the above riffs, Russell sits out I think

Break

Kele
e|--------------------------------|
B|-------------------------7777777|
G|---7777777777777799999999-------|
D|999-----------------------------|
A|--------------------------------|x2

Russell
With some kind of delay
e|---------------------99999999101010101010101010|
B|101010107777777777777--------------------------|
G|-----------------------------------------------|
D|-----------------------------------------------|
A|-----------------------------------------------|

Verse 2

Kele plays the same

Russell plays this sometimes
e|-------------|
B|12-12--12-12-|
G|11-11--11-11-|
D|-------------|
A|-------------|
E|-------------|

Chorus

Russell
e|------------------------------------------------|
B|12-12--12-12-12--12-12-12--55-555-555-7b8r7-5---|
G|11-11--11-11-11--11-11-11--66-666-777---------7-|
D|------------------------------------------------|
A|------------------------------------------------|
E|------------------------------------------------|
[ Tab from: http://www.guitaretab.com/b/bloc-party/188493.html ]
Kele
e|---------------------------|
B|---------------------------|
G|---------------------------|
D|---------------------------|
A|99-999-999--55-555-522-222-|
E|77-777-777--33-333-300-000-|

Verse

Kele is the same

Russell now plays something like this

e|-----------------|
B|33-33-3--55-55-2-|
G|44-44-4--44-44-4-|
D|-----------------|
A|-----------------|
E|-----------------|

Chorus two is same as first

Break Two

Russell
e|------------------------|4th-time------------------|
B|------------------------|---------------------10~~-|
G|2424/11-2424/11-24242~~-|-2424/11-2424/11-2424-----|
D|------------------------|--------------------------|
A|------------------------|--------------------------|
E|------------------------|--------------------------|

Kele
e|--------------------|
B|--------------------|
G|--------------------|
D|77-77-77-99-9-9-9~~-|
A|77-77-77-77-7-7-9~~-|
E|55-55-55--------7~~-|

Outro

Russell

Quick Solo
e|----------------------------------|
B|10----10--------------------------|
G|---11----9----11-11-11-9-9b11r9---|
D|-----------12-------------------12|
A|----------------------------------|
E|----------------------------------|

And I think he plays this over Kele's riff
e|-----------------|
B|-----------------|
G|44466677---66677-|
D|--------555------|
A|-----------------|
E|-----------------|

Kele
Comes in after Russell'S Solo
e|-----------------|
B|-----------------|
G|-----------------|
D|---66677------77-|
A|9994445555577755-|
E|777-----333555---|


And thats all
Sorry if there's lots of mistakes, its was tabbed from youtube video of very poor 
so is hard to hear!!!
Related for Chinese Burn tab
Chinese Burn chords by Bloc Party