Song name
# A B C D E F G H I J K L M N O P Q R S T U V W X Y Z

Bloc Party - One More Chance tab

Bloc Party's New Single, Released 10th August

Piano Riff
This is the best I could do
e|---------1212-5-5-5----|
B|13-13-13-1313-6-6-6-66-|
G|14-14-14------------77-|
D|-----------------------|
A|-----------------------|
E|-----------------------|

Chorus - Tremolo(Play 2 otes for every 1 here)
Both Guitars
e|-------------------------------|
B|-------------------------------|
G|-------------------------------|
D|----------------------55557777-|
A|0000003333555577777777---------|
E|-------------------------------|X2

e|--------------------------------|
B|--------------------------------|
G|--------------------------------|
D|----5555------------5555--------|
A|3333----777777553333----7777777-|
E|--------------------------------|

e|-------------------------|
B|-------------------------|
G|-------------------------|
D|----------------55557777-|
A|0000333355577777---------|
E|-------------------------|

Verse 2 - Tremolo
Kele
e|---------------------------------|
B|---------------------------------|
G|--------444455555----------------|
D|77777777---------77777775555-----|
A|----------------------------7777-|
E|---------------------------------|

Russell changes to
e|----------------------------------|
B|----------------------------------|
G|555555557777999955555555544442222-|
D|----------------------------------|
A|----------------------------------|
E|----------------------------------|

Chorus again

Then Kele continues playing the Chorus
Russell plays this
e|---------------------------|
B|---------------------------|
G|---------------------------|
D|----------------2252-0-02--|
A|0030-030-0305555---------3-|
E|---------------------------|

Piano Break then Chorus

Play Chorus and Russell's Riff until the end

Thats all, should be correct
Personally I love the dancy feel to this song and think 
it carries on well from Intimacy
:)
Tap to rate this tab
# A B C D E F G H I J K L M N O P Q R S T U V W X Y Z