Song name
# A B C D E F G H I J K L M N O P Q R S T U V W X Y Z

Bloc Party - Biko tab

                       Biko- Bloc Party

Email:

Tuning:Standard Capo on the 3rd fret ( notes relative to capo)

e|----------------------------------------------------------------------------|
B|----------2-------------2---------------2---------2-------------------------|
G|-------2-------------2---------------2--------------------------------------|
D|----4--------------4--------------4------------4----------------------------|
A|----------------------------------------------------------------------------|
E|----------------------------------------------------------------------------|

e|----------------------------------------------------------------------------|
B|----------2-------------2---------------2---------2-------------------------|
G|-------2-------------2---------------2--------------------------------------|
D|----0--------------0--------------0------------0----------------------------|
A|----------------------------------------------------------------------------|
E|----------------------------------------------------------------------------|

Repeat that 4 times then do riff below once

e|----------------------------------------------------------------------------|
B|----------3-------------3---------------3---------3-------------------------|
G|-------2-------------2---------------2--------------------------------------|
D|----4--------------4--------------4------------4----------------------------|
A|----------------------------------------------------------------------------|
E|----------------------------------------------------------------------------|

e|----------------------------------------------------------------------------|
B|----------2-------------2---------------2---------2-------------------------|
G|-------2-------------2---------------2--------------------------------------|
D|----0--------------0--------------0------------0----------------------------|
A|----------------------------------------------------------------------------|
E|----------------------------------------------------------------------------|

Thats the Whole song it repeats the whole way through rate it even if u hate it

| /  slide up
| \  slide down
| h  hammer-on
| p  pull-off
| ~  vibrato
| +  harmonic
| x  Mute note
===============================================================================
Tap to rate this tab
# A B C D E F G H I J K L M N O P Q R S T U V W X Y Z