Guitaretab - guitar tabs
Song name
# A B C D E F G H I J K L M N O P Q R S T U V W X Y Z

Bloc Party - I Still Remember tab

This is my version of Bloc Party's, I Still Remember.

The other tab on this site by light_jak is great, and I have borrowed most of his tab
filled in the missing pieces, but I found this finger pattern on the intro was a bit
to play. I have also tried to fill in some of the chorus and other fill pieces.

Cheers guys, and please rate seeing as this is my first tab!

Introduction (x2)

e|--------8--6--5-------------8--6--5-------------6------------------6-------|
B|--6-6-------------6/5-5-5-------------6--8--8------5-----6--8--8------5----|
G|------------------------------------------------------6-----------------6--|
D|---------------------------------------------------------------------------|
A|---------------------------------------------------------------------------|
E|---------------------------------------------------------------------------|

Verse x 8

e|---------------------------------------------------------------------------|
B|---------------------------------------------------------------------------|
G|--10----3-----5-----7-----10-----------------------------------------------|
D|--10-x4-3-x4--5-x4--7-x4--10-x20-------------------------------------------|
A|--8-----1-----3-----5-----8------------------------------------------------|
E|---------------------------------------------------------------------------|

Pre-Chorus (Russell)
e|---------------------------------------------------------------------------|
B|---------------------------------13-13-11-11-10----------------------------|
G|-----------------------------10-----------------10-------------------------|
D|--10-10-10-10-10-10-10-12-12-----------------------------------------------|
A|---------------------------------------------------------------------------|
E|---------------------------------------------------------------------------|

Chorus (Kele) - repeat throughout chorus
e|---------------------------------------------------------------------------|
B|---------------------------------------------------------------------------|
G|-7----3---------3----5-----------------------------------------------------|
D|-7-x4-3-x4-3----3-x2-5-x2--------------------------------------------------|
A|-5----1----3-x4-1----3-----------------------------------------------------|
E|-----------1---------------------------------------------------------------|

Chorus (Russell)
e|---------------------------------------------------------------------------|
B|--13-13---------------10-13-15----10-11-10---------------------------------|
G|--------14-14/9-10-12----------10----------10-12---------------------------|
D|---------------------------------------------------------------------------|
A|---------------------------------------------------------------------------|
E|---------------------------------------------------------------------------|

[ Tab from: http://www.guitaretab.com/b/bloc-party/196069.html ]
e|---------------------------------------------------------------------------|
B|--13-11-10------------10-13-15----10-11-10---------------------------------|
G|-----------12-9-10-12----------10----------12-10---------------------------|
D|---------------------------------------------------------------------------|
A|---------------------------------------------------------------------------|
E|---------------------------------------------------------------------------|


e|--13----13----13----13----13----13----12----12-----------------------------|
B|-----10----10----10----10----10----10----11----11--------------------------|
G|---------------------------------------------------------------------------|
D|---------------------------------------------------------------------------|
A|---------------------------------------------------------------------------|
E|---------------------------------------------------------------------------|


e|--13----13----13----13----13----13----12----12-----------------------------|
B|-----10----10----10----10----10----10----11----11--------------------------|
G|---------------------------------------------------------------------------|
D|---------------------------------------------------------------------------|
A|---------------------------------------------------------------------------|
E|---------------------------------------------------------------------------|


e|-----------------------------------------------------8-8-10-10-------------|
B|-------11----13----15-----------------8-8-10-10-11-11----------------------|
G|-10------10----10----10--7-7-9-9-10-10-------------------------------------|
D|---------------------------------------------------------------------------|
A|---------------------------------------------------------------------------|
E|---------------------------------------------------------------------------|


Outro (Kele)
e|-8-------------------------------------------------------------------------|
B|-8-------------------------------------------------------------------------|
G|-10------------------------------------------------------------------------|
D|-10------------------------------------------------------------------------|
A|-8-------------------------------------------------------------------------|
E|---------------------------------------------------------------------------|

Outro (Russell)

e|--------8--6--5-------------8--6--5-------------6------------------6-------|
B|--6-6-------------6/5-5-5-------------6--8--8------5--------8--8------5----|
G|------------------------------------------------------6-----------------6--| x2
D|---------------------------------------------------------------------------|
A|---------------------------------------------------------------------------|
E|---------------------------------------------------------------------------|


e|---------20-18-17-------------20-18-17-----------17--------------17--------|
B|--18-18-----------18\17-17-17-----------18-20-20---18------20-20---18------|
G|-----------------------------------------------------17-17-----------17----|
D|---------------------------------------------------------------------------|
A|---------------------------------------------------------------------------|
E|---------------------------------------------------------------------------|

The Song is played in this order:

Intro Riff x2
Verse x 8
Pre-Chorus
Chorus
Intro Riff x2
Verse x 8
Pre-Chorus
Chorus
Intro Riff x2
Outro
Related for I Still Remember tab
I Still Remember chords by Bloc Party