Song name
# A B C D E F G H I J K L M N O P Q R S T U V W X Y Z

Bloc Party - The Present tab

Tabbed by HatMcCulloch

I don't know if this is all correct, it was tabbed by someone else, I'm just
submitting for anyone who may want it


************
The Present
Bloc Party
Help: A Day In The Life

gtr 1 (kele) gtr 2 (russell)


intro

gtr 1

e-4~------4~-------------------------------------------------------------|
B-5~--7~--5~--7~--4---7~--4~--2~-----------------------------------------|
G-6~--8~--6~--8~--4---8~--4~--3~-----------------------------------------|
D-6~--9~--6~--9~--6~--9~--6~--4~-----------------------------------------|
A-----9~------9~--6~--9~--6~--4~-----------------------------------------|
E------------------------------------------------------------------------|

gtr 2 (delay/reverb)

e--------------------------------------------------------------------------------|
B--------------------------------------------------------------------------------|
G-/11-11-11-11-11-11-11-11-8-8-8-8-8-4-4-4-4-4/11-11-11-11-11-11-8-8-8-8-9-9-9-9-|
D--------------------------------------------------------------------------------|
A--------------------------------------------------------------------------------|
E--------------------------------------------------------------------------------|

e--------------------------------------------------------------------------------|
B--------------------------------------------------------------------------------|
G--------------------------------------------------------------------------------|
D-9-9-9-9-9-9-9-9-11-11-11-11-13-13-13-13-9-9-9-9-9-9-9-9-8-8-8-8-4-4-4-4~-------|
A--------------------------------------------------------------------------------|
E--------------------------------------------------------------------------------|

e--------------------------------------------------------------------------------|
B--------------------------------------------------------------------------------|
G-/11-11-11-11-11-11-11-11-8-8-8-8-8-4-4-4-4-4/11-11-11-11-11-11-8-8-8-8-9-9-9-9-|
D--------------------------------------------------------------------------------|
A--------------------------------------------------------------------------------|
E--------------------------------------------------------------------------------|

e--------------------------------------------------------------------------------|
B--------------------------------------------------------------------------------|
G--------------------------------------------------------------------------------|
D-9-9-9-9-9-9-9-9-11-11-11-11-13-13-13-13-13-13-13-13-13-14-14-14-14-14-14-14~---|
A--------------------------------------------------------------------------------|
E--------------------------------------------------------------------------------|


verse

gtr 1

e-4~------4~-------------------------------------------------------------|
B-5~--7~--5~--7~--4---7~--4~--2~-----------------------------------------|
G-6~--8~--6~--8~--4---8~--4~--3~-----------------------------------------|
D-6~--9~--6~--9~--6~--9~--6~--4~-----------------------------------------|
A-----9~------9~--6~--9~--6~--4~-----------------------------------------|
E------------------------------------------------------------------------|

bridge

gtr 1

e-4~------4~-------------------------------------------------------------|
B-5~--7~--5~--7~--4---7~--4~--2~-----------------------------------------|
G-6~--8~--6~--8~--4---8~--4~--3~-----------------------------------------|
D-6~--9~--6~--9~--6~--9~--6~--4~-----------------------------------------|
A-----9~------9~--6~--9~--6~--4~-----------------------------------------|
E------------------------------------------------------------------------|

gtr 2 (delay/reverb)

e--------------------------------------------------------------------------------|
B--------------------------------------------------------------------------------|
G-/11-11-11-11-11-11-11-11-8-8-8-8-8-4-4-4-4-4/11-11-11-11-11-11-8-8-8-8-9-9-9-9-|
D--------------------------------------------------------------------------------|
A--------------------------------------------------------------------------------|
E--------------------------------------------------------------------------------|

e--------------------------------------------------------------------------------|
B--------------------------------------------------------------------------------|
G--------------------------------------------------------------------------------|
D-9-9-9-9-9-9-9-9-11-11-11-11-13-13-13-13-9-9-9-9-9-9-9-9-8-8-8-8-4-4-4-4--------|
A--------------------------------------------------------------------------------|
E--------------------------------------------------------------------------------|

e--------------------------------------------------------------------------------|
B--------------------------------------------------------------------------------|
G-/11-11-11-11-11-11-11-11-8-8-8-8-8-4-4-4-4-4/11-11-11-11-11-11-8-8-8-8-9-9-9-9-|
D--------------------------------------------------------------------------------|
A--------------------------------------------------------------------------------|
E--------------------------------------------------------------------------------|

e--------------------------------------------------------------------------------|
B--------------------------------------------------------------------------------|
G--------------------------------------------------------------------------------|
D-9-9-9-9-9-9-9-9-11-11-11-11-13-13-13-13-13-13-13-13-13-14-14-14-14-14-14-14~---|
A--------------------------------------------------------------------------------|
E--------------------------------------------------------------------------------|


verse 2

gtr 1

e-4~------4~-------------------------------------------------------------|
B-5~--7~--5~--7~--4---7~--4~--2~-----------------------------------------|
G-6~--8~--6~--8~--4---8~--4~--3~-----------------------------------------|
D-6~--9~--6~--9~--6~--9~--6~--4~-----------------------------------------|
A-----9~------9~--6~--9~--6~--4~-----------------------------------------|
E------------------------------------------------------------------------|

gtr 2

e------------------------------------------------------------------|
B-7-7-7--7-7-7/--7-7-7----7-7-7/-----------------------------------|
G-8-8-8--8-8-8/--8-8-8----8-8-8/-----------------------------------|
D------------------------------------------------------------------|
A------------------------------------------------------------------|
E------------------------------------------------------------------|

gtr 1

e-4~------4~-------------------------------------------------------------|
B-5~--7~--5~--7~--4---7~--4~--2~-----------------------------------------|
G-6~--8~--6~--8~--4---8~--4~--3~-----------------------------------------|
D-6~--9~--6~--9~--6~--9~--6~--4~-----------------------------------------|
A-----9~------9~--6~--9~--6~--4~-----------------------------------------|
E------------------------------------------------------------------------|

gtr 2
                                eventually add this
e-------------------------------7-7-7--7-7-7-----------------------|
B-7-7-7--7-7-7/--7-7-7--7-7-7/--7-7-7--7-7-7-----------------------|
G-8-8-8--8-8-8/--8-8-8--8-8-8/--8-8-8--8-8-8-----------------------|
D------------------------------------------------------------------|
A------------------------------------------------------------------|
E------------------------------------------------------------------|

chorus

gtr 1

e------------------------------------------------------------------|
B------------------------------------------------------------------|
G------------------------------------------------------------------|
D-2-2-2--2-2-2-4-4-4--4-4-4--6-6-6--6-6-6--9-9-9--9-9-9------------|
A-2-2-2--2-2-2-4-4-4--4-4-4--6-6-6--6-6-6--9-9-9--9-9-9------------|
E-0-0-0--0-0-0-2-2-2--2-2-2--4-4-4--4-4-4--7-7-7--7-7-7------------|

gtr 2

e-14-14-14-14-14-14-14-16-14-14-14-14-11-11-7-7--------------------|
B------------------------------------------------------------------|
G------------------------------------------------------------------|
D------------------------------------------------------------------|
A------------------------------------------------------------------|
E------------------------------------------------------------------|

e-14-14-14-14-14-14-14-16-14-14-14-14-9-9-7-7----------------------|
B------------------------------------------------------------------|
G------------------------------------------------------------------|
D------------------------------------------------------------------|
A------------------------------------------------------------------|
E------------------------------------------------------------------|

break

gtr 1

e-4~------4~-------------------------------------------------------------|
B-5~--7~--5~--7~--4---7~--4~--7~-----------------------------------------|
G-6~--8~--6~--8~--4---8~--4~--8~-----------------------------------------|
D-6~--9~--6~--9~--6~--9~--6~--9~-----------------------------------------|
A-----9~------9~--6~--9~--6~--9~-----------------------------------------|
E------------------------------------------------------------------------|

gtr 2

e--------------------------------------------|
B--7-0-7-0-7-0-7-0---------------------------|
G---6---6---6---6--8-9-8-6-4-6--8-9-8-6-4-6--|
D--------------------------------------------|
A--------------------------------------------|
E--------------------------------------------|


chorus

gtr 1

e------------------------------------------------------------------|
B------------------------------------------------------------------|
G------------------------------------------------------------------|
D-2-2-2--2-2-2-4-4-4--4-4-4--6-6-6--6-6-6--9-9-9--9-9-9------------|
A-2-2-2--2-2-2-4-4-4--4-4-4--6-6-6--6-6-6--9-9-9--9-9-9------------|
E-0-0-0--0-0-0-2-2-2--2-2-2--4-4-4--4-4-4--7-7-7--7-7-7------------|

gtr 2

e-14-14-14-14-14-14-14-16-14-14-14-14-11-11-7-7--------------------|
B------------------------------------------------------------------|
G------------------------------------------------------------------|
D------------------------------------------------------------------|
A------------------------------------------------------------------|
E------------------------------------------------------------------|

e-14-14-14-14-14-14-14-16-14-14-14-14-9-9-7-7----------------------|
B------------------------------------------------------------------|
G------------------------------------------------------------------|
D------------------------------------------------------------------|
A------------------------------------------------------------------|
E------------------------------------------------------------------|


end
Tap to rate this tab
 
# A B C D E F G H I J K L M N O P Q R S T U V W X Y Z