Song name
# A B C D E F G H I J K L M N O P Q R S T U V W X Y Z

Bloc Party - Compliments tab

This is the guitar around 2:00.
Some delay and reverb i think.

e|----------------|
B|----------------|
G|----------------|
D|-888889--4-2-1--|
A|----------------|
E|----------------|

e|---------------------|
B|---------7-0---------|
G|---------------------|
D|-888889------8-9---4-|
A|---------------------|
E|---------------------|

e|--------------------------|
B|--------------------------|
G|--------------11----------|
D|-888889-11-13-----11---9--|
A|--------------------------|
E|--------------------------|


e|-----------------------------------------|
B|-------------7-7-7-7-7-7-7-7-9-9-9-9-9-9-|
G|--------6-8------------------------------|
D|-888889----------------------------------|
A|-----------------------------------------|
E|-----------------------------------------|


e|---------------------------------------|
B|-12-12-12-12-12-12-11-11-11-11-7-7-7-7-|
G|---------------------------------------|
D|---------------------------------------|
A|---------------------------------------|
E|---------------------------------------|

e|---------------------------------|
B|-12-12-14-14-16-16-19-19---19h---|
G|---------------------------------|
D|---------------------------------|
A|---------------------------------|
E|---------------------------------|

AAAAAAAAANNNNNDDDDDD... thats it!
Tap to rate this tab
# A B C D E F G H I J K L M N O P Q R S T U V W X Y Z