Song name
# A B C D E F G H I J K L M N O P Q R S T U V W X Y Z

Bloc Party - Signs tab

-------------------------------------------------------------------------------
                             SIGNS - Bloc Party
-------------------------------------------------------------------------------
Tabbed by: Ben
Email: pm me

Tuning:EADGBe



So this is the "Live & intimate" version of the song as played in the link below:
http://www.youtube.com/watch?v=AhZ8f7q7vSE

Im pretty sure this tab is accurate. I listened to and watched it pretty carefully,
so if anyone has any corrections please post them.


Im sorry I did not really tab out the timing very well (especially in the ending) so
just watch the video and listen to the song to get the timing down


e|---------------7----| |---------------------|
B|----7---------------| |--9--7------10--9-7--|
G|------9------9------| |-------9-------------|
D|-9---------9--------| |---------------------|
A|--------------------| |---------------------|
E|--------------------| |---------------------|

e|-------------------7-| |--------------------7--|
B|-----7-----------7---| |------7-----------7----|
G|---9---9---9---9-----| |----9---9---9---9------|
D|-9-------9---9-------| |--9-------9---9--------|
A|---------------------| |-----------------------|
E|---------------------| |-----------------------|


e|------------------------------|--------------------------------|
B|----9-7---------10-9-7--------|-----9-7---------10-9-7---------|
G|--------9---9------------9----|---------9---9-------------9----|
D|-9--------9---9--------9---9--|--9---------9---9--------9---9--|
A|------------------------------|--------------------------------|
E|------------------------------|--------------------------------|

e|-9---7---5---2-----9---7---5---2-----9---7---5---2----|--5-4-2-0--------|
B|---9---7---4---2-----9---7---4---2-----9---7---4---2--|-----------2-0-2-|
G|------------------------------------------------------|-----------------|
D|------------------------------------------------------|-----------------|X5
A|------------------------------------------------------|-----------------|
E|------------------------------------------------------|-----------------|

PHASER ON                                       PHASER OFF
e|----------------------------------------------9---9---9---9-----|
B|-2---2---2---4---4---4---4---5---5---5---5------9---9---9---9---|
G|---0---0---0---0---0---0---0---0---0---0---0--------------------|
D|----------------------------------------------------------------|
A|----------------------------------------------------------------|
E|----------------------------------------------------------------|

e|-7---7-------------------------------------------|
B|---7---10--9-7--------------10--9-7--------------|
G|---------------9----9----------------9---9--11---|
D|------------------9---9----------------9---------|
A|-------------------------------------------------|
E|-------------------------------------------------|

------------------------------------------------------------------------
Outro: Repeat 3X

e|-----------------------------------------|
B|-14----14----16----16----17----17----16--|
G|----13----13----16----16----16----16-----|
D|-----------------------------------------|
A|-----------------------------------------|
E|-----------------------------------------|

e|-19--17--16------16--------------|--17--16---17--16---------16--|
B|-------------19--------17----17--|-------------------19--16-----|
G|--------------------16----16-----|------------------------------|
D|---------------------------------|------------------------------|
A|---------------------------------|------------------------------|
E|---------------------------------|------------------------------|

e|---------------------------------------|
B|-17----17----17----19--16----16----16--|
G|----16----16----16--------16----16-----|
D|---------------------------------------|
A|---------------------------------------|
E|---------------------------------------|

Enjoy!


************************************

| /   slide up
| \   slide down
| h   hammer-on
| p   pull-off
| ~   vibrato
| +   harmonic
| x   Mute note
| b   Bend
| pb  Pre-bend
| br  Bend release
| pbr Pre-bend release
| brb Bend release bend

************************************
Tap to rate this tab
# A B C D E F G H I J K L M N O P Q R S T U V W X Y Z