Song name
# A B C D E F G H I J K L M N O P Q R S T U V W X Y Z

Bloc Party - Marshals Are Dead tab

This sounded about right to me... Hopefully you too :D


(The first verse and the first chorus are the exact same...)

E|----------------------------------------------------------------|
B|-7---7---7---7---7---7---7-7-7---7---7---7---7---7---7----------|
G|-7---7---7---7---7---7---9-9-9---7---7---7---7---7---7---7-7-7--| X10
D|-9---9---9---9---9---9---9-9-9---9---9---9---9---9---9---8-8-8--|
A|---------------------------------------------------------9-9-9--|
E|----------------------------------------------------------------|



After first chorus:

E|----------------------------------------------------------------|
B|-----7-7-----7-7-----7-7-8-8-10-10------------------------------|
G|---------------------------------------9-9-----9-9-----7-7-----6|
D|-9-9-----9-9-----9-9---------------7-7-----7-7-----7-7-----7-7--|
A|----------------------------------------------------------------|
E|----------------------------------------------------------------|

E|---------------------------------7-9-10-9-7---------|
B|-----7-7-----7-7-----7-8-10-8-10-----------10-10-10-|
G|----------------------------------------------------|
D|-9-9-----9-9-----9-9--------------------------------|
A|----------------------------------------------------|
E|----------------------------------------------------|



(Second verse. There's a lead riff in there which I'm not exactly sure of.)

E|-----------------------------------------------------------------------|
B|---7---7---7---7---7---7---8-8-8-----7---7---7---7---7---7---10-10-10--|
G|---7---7---7---7---7---7---7-7-7-----7---7---7---7---7---7----7--7--7--|X4
D|-8/9---9---9---9---9---9---9-9-9---8/9---9---9---9---9---9----9--9--9--|
A|-----------------------------------------------------------------------|
E|-----------------------------------------------------------------------|



The first part of the second chorus is played the same as before except it's only played 
4 times. The next part, however, is played as followed:

E|-7--10---7--10---7--10--12---7--10---7--10---7--10---9--|
B|-7---7---7---7---7---7---7---7---7---7---7---7---7---7--|
G|--------------------------------------------------------| X6
D|--------------------------------------------------------|
A|--------------------------------------------------------|
E|--------------------------------------------------------|



Solo: (Some of the notes may be bent but I can't tell if it's enough to match a higher pitch)

E|-7-----7-----7-----9-9-9-10-----10-----12b13----------7-----7-----7----|
B|-----------------------------------------------------------------------|
G|-----------------------------------------------------------------------|
D|-----------------------------------------------------------------------|
A|-----------------------------------------------------------------------|
E|-----------------------------------------------------------------------|

E|-5-5-5-2-2-2-2-2-2-2-2/14-14-14-14-14-14-14-14-15-15-15-15-14-14-14-14|
B|----------------------------------------------------------------------|
G|----------------------------------------------------------------------|
D|----------------------------------------------------------------------|
A|----------------------------------------------------------------------|
E|----------------------------------------------------------------------|

E|-14-14-14-14\12-12-12-12\14-14-14-14-14-14-14-14/19-19-19-19-19-19-19b20|
B|------------------------------------------------------------------------|
G|------------------------------------------------------------------------|
D|------------------------------------------------------------------------|
A|------------------------------------------------------------------------|
E|------------------------------------------------------------------------|



And I'm pretty sure the song concludes with the same tabs as the second verse, repeated 
4 times.


Thank you, and I hope this assists you on your magical journey of learning this terrific 
song :D
Tap to rate this tab
 
# A B C D E F G H I J K L M N O P Q R S T U V W X Y Z