Song name
# A B C D E F G H I J K L M N O P Q R S T U V W X Y Z

Bloc Party - The Healing tab

Russell


Intro/Verse

E||----------------------------------------------------------------||
B||----------------------------------------------------------------||
G||------5---------------5---------------5---------------5-7-5-----||
D||7-5-7---7-5---5-7-5-7---7-5-----7-5-7---7-5---5-775-7-------7-5-||
A||------------7---------------7-5-------------7-------------------||
E||----------------------------------------------------------------||


and then just before the chorus we have this little bit


E||------------------------------------------||
B||5-6-8-5-6-8-5-6-8-5-6-8-5-6-8-5-6-8-5-6-8-||
G||------------------------------------------||  etc
D||------------------------------------------||
A||------------------------------------------||
E||------------------------------------------||


Chorus


E||------------------------------------------------------------------------||
B||5--6--8-5-------------------8-5-----------------5--6--8-5---------------||
G||----------7-5-7-5---5-----------7-5-7-5---5---------------7-5-7-5---5---||
D||------------------7---7-----------------7-------------------------7-----||
A||------------------------------------------------------------------------||
E||------------------------------------------------------------------------||

E||--------------------||
B||6-5-----------------||
G||----7-5-7-5---5-----||
D||------------7---5---||
A||--------------------||
E||--------------------||

Russell doesn't play anything in the quiet bit in the middle


Outro

E||----------------------------------------------------7b8r7-----||
B||6p5---8--------------6p5---8---6-5-------6p5---8----------8---||
G||----5------5b7r5-4-------5---------5-4-------5----------------||
D||--------7--------------------7-------------------7------------||
A||--------------------------------------------------------------||
E||--------------------------------------------------------------||


E||---------------------||
B||6p5---8--------------||
G||----5------5b7r5-----||
D||--------7--------5---||
A||---------------------||
E||---------------------||


____________________________________________________________________________


Kele



Intro/Verse

There are some strange chord inversions going on here I think but this sounds somewhere 
approaching right

E||-----------------------------------------------------------||
B||-----------------------------------------------------------||
G||12~~~~~~9~~~~~~~12~~~~~~9~~~7~~~5~~~~~~5~~~~~~2~~~~~~~~~~~~||
D||10~~~~~~10~~~~~~10~~~~~~10~~7~~~5~~~~~~7~~~~~~3~~~~~~~~~~~~||
A||10~~~~~~7~~~~~~~10~~~~~~7~~~5~~~3~~~~~~7~~~~~~3~~~~~~~~~~~~||
E||-----------------------------------------------------------||



Chorus/Quiet Breakdown

Just some straight forward barre chords for the chorus it sounds like
very low in the mix

E||-----------------------------------||
B||-----------------10~~~~~~~---------||
G||5~~~~~~~9~~~~~~~~10~~~~~~~9~~~~4~~~||   The end just uses the Am chord
D||7~~~~~~~10~~~~~~~10~~~~~~~10~~~5~~~||   from the start of the chorus
A||7~~~~~~~10~~~~~~~8~~~~~~~~10~~~5~~~||   a few times
E||5~~~~~~~8~~~~~~~~---------8~~~~3~~~||


There is a third guitar dubbed over the chorus using an ebow by the sounds of it. As 
near as I can tell this is it.

E||-------------------------------------------------------------------||
B||10~~~~~~~13~~~~~~~6~~~~~~~5~~~3~~~13~~~~~~~~~~~~~~~6~~~~~~~5~~~~~~~||
G||-------------------------------------------------------------------||
D||-------------------------------------------------------------------||
A||-------------------------------------------------------------------||
E||-------------------------------------------------------------------||
Tap to rate this tab
# A B C D E F G H I J K L M N O P Q R S T U V W X Y Z