Song name
# A B C D E F G H I J K L M N O P Q R S T U V W X Y Z

Bloc Party - Truth tab

Bloc party - Truth (album Four)
Lead guitar- Russell Lissack
Standard tuning
I am not sure about guitar effects used in this song but for sure he has twin 
delay. If you will find out settings of his effects(especially delays),I would be 
cheerful for every advice. :)   ( peter.hrabos@gmail.com )
Verse
 It was                   the truth
e|-----------|-----------|-----------|-----------|
B|---5-------|---7-------|---8-------|---10------|
G|---5-------|---7-------|---7-------|---9-------|
D|-----------|-----------|-----------|-----------|
A|-----------|-----------|-----------|-----------|
E|-----------|-----------|-----------|-----------|
 That fell                from these lips
e|-----------|-----------|-----------|-----------|
B|---5-------|---7-------|---8-------|---10------|
G|---5-------|---7-------|---7-------|---9-------|
D|-----------|-----------|-----------|-----------|
A|-----------|-----------|-----------|-----------|
E|-----------|-----------|-----------|-----------|
 It blin        -         ded us
e|-----------|-----------|-----------|-----------|
B|---5-------|---7-------|---8-------|---10------|
G|---5-------|---7-------|---7-------|---9-------|
D|-----------|-----------|-----------|-----------|
A|-----------|-----------|-----------|-----------|
E|-----------|-----------|-----------|-----------|
e|-----------|-----------|-----------|-----------|
And then the dark -       ness left
B|-----------|-----------|-----------|-----------|
G|---5-------|---7-------|---8-------|---10------|
D|---5-------|---7-------|---7-------|---9-------|
A|-----------|-----------|-----------|-----------|
E|-----------|-----------|-----------|-----------|

Chorus(2x)
So I am yours now
e|-----------|---7-------|---8-------|---7-------|---10------|---7-------|
B|---8-------|---8-------|---8-------|---8-------|---8-------|---8-------|
G|---7-------|-----------|-----------|-----------|-----------|-----------|
D|-----------|-----------|-----------|-----------|-----------|-----------|
A|-----------|-----------|-----------|-----------|-----------|-----------|
E|-----------|-----------|-----------|-----------|-----------|-----------|
              Respectfully
e|---5-------|---7-------|-----------|---8-------|-----------|---8-------|
B|---8-------|---8-------|---5-------|---8-------|---5-------|---8-------|
G|-----------|-----------|---5-------|-----------|---5-------|-----------|
D|-----------|-----------|-----------|-----------|-----------|-----------|
A|-----------|-----------|-----------|-----------|-----------|-----------|
E|-----------|-----------|-----------|-----------|-----------|-----------|
I am yours now
e|-----------|---7-------|---8-------|---7-------|---10------|---7-------|
B|---8-------|---8-------|---8-------|---8-------|---8-------|---8-------|
G|---7-------|-----------|-----------|-----------|-----------|-----------|
D|-----------|-----------|-----------|-----------|-----------|-----------|
A|-----------|-----------|-----------|-----------|-----------|-----------|
E|-----------|-----------|-----------|-----------|-----------|-----------|
              Truthfully
e|---5-------|---7-------|-----------|---8-------|-----------|---8-------|
B|---8-------|---8-------|---5-------|---8-------|---5-------|---8-------|
G|-----------|-----------|---5-------|-----------|---5-------|-----------|
D|-----------|-----------|-----------|-----------|-----------|-----------|
A|-----------|-----------|-----------|-----------|-----------|-----------|
E|-----------|-----------|-----------|-----------|-----------|-----------|
 Truthfully(end of the chorus)
e|-----------|
B|---5-------|
G|---5-------|
D|-----------|
A|-----------|
E|-----------|

Verse
 It burnt                 the stain
e|-----------|-----------|-----------|-----------|
B|---5-------|---7-------|---8-------|---10------|
G|---5-------|---7-------|---7-------|---9-------|
D|-----------|-----------|-----------|-----------|
A|-----------|-----------|-----------|-----------|
E|-----------|-----------|-----------|-----------|
 Left on                  my mind
e|-----------|-----------|-----------|-----------|
B|---5-------|---7-------|---8-------|---10------|
G|---5-------|---7-------|---7-------|---9-------|
D|-----------|-----------|-----------|-----------|
A|-----------|-----------|-----------|-----------|
E|-----------|-----------|-----------|-----------|
 Our hearts,  our hearts, they beat   
e|-----------|-----------|-----------|-----------|
B|---5-------|---7-------|---8-------|---10------|
G|---5-------|---7-------|---7-------|---9-------|
D|-----------|-----------|-----------|-----------|
A|-----------|-----------|-----------|-----------|
E|-----------|-----------|-----------|-----------|
 A quarter tone           apart 
e|-----------|-----------|-----------|-----------|
B|---5-------|---7-------|---8-------|---10------|
G|---5-------|---7-------|---7-------|---9-------|
D|-----------|-----------|-----------|-----------|
A|-----------|-----------|-----------|-----------|
E|-----------|-----------|-----------|-----------|

Chorus
 Cause I am yours now
e|-----------|---7-------|---8-------|---7-------|---10------|---7-------|
B|---8-------|---8-------|---8-------|---8-------|---8-------|---8-------|
G|---7-------|-----------|-----------|-----------|-----------|-----------|
D|-----------|-----------|-----------|-----------|-----------|-----------|
A|-----------|-----------|-----------|-----------|-----------|-----------|
E|-----------|-----------|-----------|-----------|-----------|-----------|
             Respectfully Why canīt I do it?      You complete me
e|---5-------|---7-------|-----------|---8-------|-----------|---8-------|
B|---8-------|---8-------|---5-------|---8-------|---5-------|---8-------|
G|-----------|-----------|---5-------|-----------|---5-------|-----------|
D|-----------|-----------|-----------|-----------|-----------|-----------|
A|-----------|-----------|-----------|-----------|-----------|-----------|
E|-----------|-----------|-----------|-----------|-----------|-----------|
 I am yours now
e|-----------|---7-------|---8-------|---7-------|---10------|---7-------|
B|---8-------|---8-------|---8-------|---8-------|---8-------|---8-------|
G|---7-------|-----------|-----------|-----------|-----------|-----------|
D|-----------|-----------|-----------|-----------|-----------|-----------|
A|-----------|-----------|-----------|-----------|-----------|-----------|
E|-----------|-----------|-----------|-----------|-----------|-----------|
             Truthfully  Why canīt I do it?      You complete me
e|---5-------|---7-------|-----------|---8-------|-----------|---8-------|
B|---8-------|---8-------|---5-------|---8-------|---5-------|---8-------|
G|-----------|-----------|---5-------|-----------|---5-------|-----------|
D|-----------|-----------|-----------|-----------|-----------|-----------|
A|-----------|-----------|-----------|-----------|-----------|-----------|
E|-----------|-----------|-----------|-----------|-----------|-----------|
 (wohou...)
e|-----------|---7-------|---8-------|---7-------|---10------|---7-------|
B|---8-------|---8-------|---8-------|---8-------|---8-------|---8-------|
G|---7-------|-----------|-----------|-----------|-----------|-----------|
D|-----------|-----------|-----------|-----------|-----------|-----------|
A|-----------|-----------|-----------|-----------|-----------|-----------|
E|-----------|-----------|-----------|-----------|-----------|-----------|

e|---5-------|---7-------|-----------|---8-------|-----------|---8-------|
B|---8-------|---8-------|---5-------|---8-------|---5-------|---8-------|
G|-----------|-----------|---5-------|-----------|---5-------|-----------|
D|-----------|-----------|-----------|-----------|-----------|-----------|
A|-----------|-----------|-----------|-----------|-----------|-----------|
E|-----------|-----------|-----------|-----------|-----------|-----------|
 (wohou...)
e|-----------|---7-------|---8-------|---7-------|---10------|---7-------|
B|---8-------|---8-------|---8-------|---8-------|---8-------|---8-------|
G|---7-------|-----------|-----------|-----------|-----------|-----------|
D|-----------|-----------|-----------|-----------|-----------|-----------|
A|-----------|-----------|-----------|-----------|-----------|-----------|
E|-----------|-----------|-----------|-----------|-----------|-----------|

e|---5-------|---7-------|-----------|---8-------|-----------|---8-------|
B|---8-------|---8-------|---5-------|---8-------|---5-------|---8-------|
G|-----------|-----------|---5-------|-----------|---5-------|-----------|
D|-----------|-----------|-----------|-----------|-----------|-----------|
A|-----------|-----------|-----------|-----------|-----------|-----------|
E|-----------|-----------|-----------|-----------|-----------|-----------|

 Bridge
 Our kind     is hard     (is hard)   to find     (to find) 
e|-----------|-----------|-----------|-----------|-----------|
B|-----------|-----------|-----------|-----10----|-----------|
G|------7----|------7----|------7----|-----------|------7----|
D|------(8x)-|------(4x)-|------(4x)-|-------(8x)|------(8x)-|
A|----5------|-----------|-----------|----10-----|----10-----|
E|-----------|----7------|----5------|-----------|-----------|
And if it will be it will     be with      you
e|-----------|-----------|-----------|-----------|
B|-------3---|------3----|------3----|------3----|
G|-----------|-----------|-----------|-----------|
D|------(8x)-|------(4x)-|------(4x)-|-----(16x)-|
A|----o------|----2------|----o------|-----------|
E|-----------|-----------|-----------|----3------|

Chorus
I am yours now
e|-----------|---7-------|---8-------|---7-------|---10------|---7-------|
B|---8-------|---8-------|---8-------|---8-------|---8-------|---8-------|
G|---7-------|-----------|-----------|-----------|-----------|-----------|
D|-----------|-----------|-----------|-----------|-----------|-----------|
A|-----------|-----------|-----------|-----------|-----------|-----------|
E|-----------|-----------|-----------|-----------|-----------|-----------|
             Respectfully Why canīt I do it?      You complete me
e|---5-------|---7-------|-----------|---8-------|-----------|---8-------|
B|---8-------|---8-------|---5-------|---8-------|---5-------|---8-------|
G|-----------|-----------|---5-------|-----------|---5-------|-----------|
D|-----------|-----------|-----------|-----------|-----------|-----------|
A|-----------|-----------|-----------|-----------|-----------|-----------|
E|-----------|-----------|-----------|-----------|-----------|-----------|
I am yours now
e|-----------|---7-------|---8-------|---7-------|---10------|---7-------|
B|---8-------|---8-------|---8-------|---8-------|---8-------|---8-------|
G|---7-------|-----------|-----------|-----------|-----------|-----------|
D|-----------|-----------|-----------|-----------|-----------|-----------|
A|-----------|-----------|-----------|-----------|-----------|-----------|
E|-----------|-----------|-----------|-----------|-----------|-----------|
             Truthfully   Why canīt I do it?      You complete me
e|---5-------|---7-------|-----------|---8-------|-----------|---8-------|
B|---8-------|---8-------|---5-------|---8-------|---5-------|---8-------|
G|-----------|-----------|---5-------|-----------|---5-------|-----------|
D|-----------|-----------|-----------|-----------|-----------|-----------|
A|-----------|-----------|-----------|-----------|-----------|-----------|
E|-----------|-----------|-----------|-----------|-----------|-----------|
(wohou...)
e|-----------|---7-------|---8-------|---7-------|---10------|---7-------|
B|---8-------|---8-------|---8-------|---8-------|---8-------|---8-------|
G|---7-------|-----------|-----------|-----------|-----------|-----------|
D|-----------|-----------|-----------|-----------|-----------|-----------|
A|-----------|-----------|-----------|-----------|-----------|-----------|
E|-----------|-----------|-----------|-----------|-----------|-----------|
(wohou...)
e|---5-------|---7-------|-----------|---8-------|-----------|---8-------|
B|---8-------|---8-------|---5-------|---8-------|---5-------|---8-------|
G|-----------|-----------|---5-------|-----------|---5-------|-----------|
D|-----------|-----------|-----------|-----------|-----------|-----------|
A|-----------|-----------|-----------|-----------|-----------|-----------|
E|-----------|-----------|-----------|-----------|-----------|-----------|
(wohou...)
e|-----------|---7-------|---8-------|---7-------|---10------|---7-------|
B|---8-------|---8-------|---8-------|---8-------|---8-------|---8-------|
G|---7-------|-----------|-----------|-----------|-----------|-----------|
D|-----------|-----------|-----------|-----------|-----------|-----------|
A|-----------|-----------|-----------|-----------|-----------|-----------|
E|-----------|-----------|-----------|-----------|-----------|-----------|
(wohou...)
e|---5-------|---7-------|-----------|---8-------|-----------|---8-------|
B|---8-------|---8-------|---5-------|---8-------|---5-------|---8-------|
G|-----------|-----------|---5-------|-----------|---5-------|-----------|
D|-----------|-----------|-----------|-----------|-----------|-----------|
A|-----------|-----------|-----------|-----------|-----------|-----------|
E|-----------|-----------|-----------|-----------|-----------|-----------|


Outro
e|---7h10-7--|---3h5-3---|--12h15-12-|---7h8-7---|-----------|-----------|
B|-----------|-----------|-----------|-----------|----8------|-----------|
G|-----------|-----------|-----------|-----------|----7------|-----------|
D|-----------|-----------|-----------|-----------|-----------|-----------|
A|-----------|-----------|-----------|-----------|-----------|-----------|
E|-----------|-----------|-----------|-----------|-----------|-----------|
Tap to rate this tab
 
# A B C D E F G H I J K L M N O P Q R S T U V W X Y Z