Song name
# A B C D E F G H I J K L M N O P Q R S T U V W X Y Z

Bloc Party - Truth Acoustic tab

he guys!
two youtube versions out there -
"live on kexp" and "live at the edge" are equivalent.
"session for zane lowe on bbc radio 1" has a little difference in the first chorus.


Tuning: EADGBE


INTRO AND VERSE 1

E----------------------------------------------------------------------------------------------------|
B----------------------------------------------------------------------------------------------------|
G-------9-----9-----9-----9-----11----11----11----11----12----12----12----14----14----14----14----14-|
D----10----10----10----10----12----12----12----12----14----14----14----14----14----14----14----14----|
A----------------------------------------------------------------------------------------------------|
E----------------------------------------------------------------------------------------------------|

6x


CHORUS 1a (version kexp and at the edge)

E-------------------------------------------------------------------------------------------------|
B--------------0------------1-----------0------------3----------0-----------------0---------------|
G--0-----------------0-------------0----------0-----------0-----------0-----2-----------0---------|
D--------0-------------------------------------------------------------------------------------0--|
A-------------------------------------------------------------------------------------------------|
E-----3-----3-----3-----3------3-----3-----3-----3-----3-----3-----3-----3-----3-----3-----3------|


E--------------------------------------------------------------------------------------------------|
B--------------0----------1-----------0-----------3-----------0-----------------0------------------|
G--0----------------0----------0------------0-----------0-----------0-----2-----------0------------|
D-------2-----------------------------------------------------------------------------------2------|
A----3-----3-----3-----3-----3-----3-----3-----3-----3-----3-----3-----3-----3-----3-----3---------|
E--------------------------------------------------------------------------------------------------|


E--------------------------------------------------------------------------------------------------|
B--------------0----------1-----------0-----------3-----------0-----------------0------------------|
G--0----------------0----------0------------0-----------0-----------0-----2-----------0------------|
D-------2-----------------------------------------------------------------------------------2------|
A----2-----2-----2-----2-----2-----2-----2-----2-----2-----2-----2-----2-----2-----2-----2---------|
E--------------------------------------------------------------------------------------------------|


E-------------------------------------------------------------------------------------------------0--|
B--------------0----------1-----------0-----------3-----------0-----------------0-----------------1--|
G--0----------------0----------0------------0-----------0-----------0-----2-----------0-----------0--|
D-------2-----------------------------------------------------------------------------------2-----2--|
A----3-----3-----3-----3-----3-----3-----3-----3-----3-----3-----3-----3-----3-----3-----3--------3--|
E-------------------------------------------------------------------------------------------------0--|

build up a strumming c-chord



CHORUS 1b (zane lowe on bbc radio 1)


E---------------------------------------------------------------------------------------------|
B-----------0-----0-----1-----1-----0-----0-----3-----3-----0-----0----------0----------------|
G--0--------------------------------------------------------------------2-----------0---------|
D-------0---------------------------------------------------------------------------------0---|
A---------------------------------------------------------------------------------------------|
E-----3----3----3-----3-----3-----3-----3-----3-----3-----3-----3-----3-----3-----3-----3-----|


E----------------------------------------------------------------------------------------------------|
B---------------0-----0-----1-----1-----0-----0-----3-----3-----0-----0-----------0------------------|
G--0------------------------------------------------------------------------2------------0-----------|
D---------2------------------------------------------------------------------------------------2-----|
A-----3------3-----3-----3-----3-----3-----3-----3-----3-----3-----3-----3-----3-----3------3-----3--|
E----------------------------------------------------------------------------------------------------|


E---------------------------------------------------------------------------------------------------|
B---------------0-----0-----1-----1-----0-----0-----3-----3-----0-----0-----------0-----------------|
G--0------------------------------------------------------------------------2------------0----------|
D---------2------------------------------------------------------------------------------------2----|
A-----2------2-----2-----2-----2-----2-----2-----2-----2-----2-----2-----2-----2-----2-----2--------|
E---------------------------------------------------------------------------------------------------|


E--------------------------------------------------------------------------------------------------0|
B-------------0-----0-----1-----1-----0-----0-----3-----3-----0-----0-----------0------------------1|
G0------------------------------------------------------------------------2------------0-----------0|
D-------2------------------------------------------------------------------------------------2-----2|
A---3------3-----3-----3-----3-----3-----3-----3-----3-----3-----3-----3-----3-----3------3-----3--3|
E--------------------------------------------------------------------------------------------------0|

again a build up c-chord strumming



VERSE 2

E---x---x---x---x---|
B---x---x---x---x---|
G---9---11--12--14--|
D---10--12--14--14--|
A---10--12--14--14--|
E---x---x---x---x---|

4x
listen to the song for the strumming pattern. these are the chords which are used.



CHORUS 2


E---0---0---0---0---0---0---0-------|
B---0---1---0---3---0---0---0-------|
G---0---0---0---0---0---2---0-------|
D---0---0---0---0---0---0---0-------|
A---2---2---2---2---2---2---2-------|
E---3---3---3---3---3---3---3-------|      ...g-chord variation strumming

E---0---0---0---0---0---0---0------|
A---0---1---0---3---0---0---0------|
G---0---0---0---0---0---2---0------|
D---2---2---2---2---2---2---2------|
A---3---3---3---3---3---3---3------|
E---0---0---0---0---0---0---0------|     ...c-chord variation strumming

E---0---0---0---0---0---0---0------|
A---0---1---0---3---0---0---0------|
G---0---0---0---0---0---2---0------|
D---2---2---2---2---2---2---2------|
A---2---2---2---2---2---2---2------|
E---0---0---0---0---0---0---0------|     ...em-chord variation strumming

E---0---0---0---0---0---0---0-|
B---0---1---0---3---0---0---0-|
G---0---0---0---0---0---2---0-|
D---2---2---2---2---2---2---2-|
A---3---3---3---3---3---3---3-|
E---0---0---0---0---0---0---0-|    ...c-chord variation strumming


2x



BRIDGE

E---------------------------------------------------|
B---------------------------------------------------|
G------7-----7-----7-----7-----7-----7-----7-----7--|
D---------------------------------------------------|
A---9-----9-----9-----9-----9-----9-----9-----9-----|
E---------------------------------------------------|


E----------------------------------------------------|
B----------------------------------------------------|
G------7-----7-----7-----7-----7-----7-----7-----7---|
D----------------------------------------------------|
A----------------------------------------------------|
E---7-----7-----7-----7-----5-----5-----5-----5------|


E-----------------------------------------------------------|
B------10-----10-----10-----10-----10-----10-----10-----10--|
G-----------------------------------------------------------|
D-----------------------------------------------------------|
A---10-----10-----10-----10-----10-----10-----10-----10-----|
E-----------------------------------------------------------|


E------------------------------------------------------------|
B------------------------------------------------------------|
G------------------------------------------------------------|
D-------12-----12-----12-----12-----12-----12-----12-----12--|
A---10-----10-----10-----10-----10-----10-----10-----10------|
E------------------------------------------------------------|


E---------------------------------------------------------------------------------------------------|
B------3-----3-----3-----3-----3-----3-----3-----3-----3-----3-----3-----3-----3-----3-----3-----3--|
G---------------------------------------------------------------------------------------------------|
D---------------------------------------------------------------------------------------------------|
A---0-----0-----0-----0-----0-----0-----0-----0-----2-----2-----2-----2-----------------------------|
E---------------------------------------------------------------------------0-----0-----0-----0-----|




E--------------------------------------------------0-|
B------3-----3-----3-----3-----3-----3-----3-------0-|
G--------------------------------------------------0-|
D--------------------------------------------------0-|
A--------------------------------------------------2-|
E---3-----3-----3-----3-----3-----3-----3-----3----3-| ....build up c-chord strumming




CHORUS 3

E---0---0---0---0---0---0---0-------|
B---0---1---0---3---0---0---0-------|
G---0---0---0---0---0---2---0-------|
D---0---0---0---0---0---0---0-------|
A---2---2---2---2---2---2---2-------|
E---3---3---3---3---3---3---3-------|      ...g-chord variation strumming

E---0---0---0---0---0---0---0------|
A---0---1---0---3---0---0---0------|
G---0---0---0---0---0---2---0------|
D---2---2---2---2---2---2---2------|
A---3---3---3---3---3---3---3------|
E---0---0---0---0---0---0---0------|     ...c-chord variation strumming

E---0---0---0---0---0---0---0------|
A---0---1---0---3---0---0---0------|
G---0---0---0---0---0---2---0------|
D---2---2---2---2---2---2---2------|
A---2---2---2---2---2---2---2------|
E---0---0---0---0---0---0---0------|     ...em-chord variation strumming

E---0---0---0---0---0---0---0-|
B---0---1---0---3---0---0---0-|
G---0---0---0---0---0---2---0-|
D---2---2---2---2---2---2---2-|
A---3---3---3---3---3---3---3-|
E---0---0---0---0---0---0---0-|    ...c-chord variation strumming


2x  but end on g
Tap to rate this tab
 
# A B C D E F G H I J K L M N O P Q R S T U V W X Y Z