Song name
# A B C D E F G H I J K L M N O P Q R S T U V W X Y Z

Bloc Party - Skeleton tab

Guitar1 - Kele.
Intro1.
e|--5h6p5~--5h6p5-----5h6p5~--5h6p5----------|
b|----------------6~----------------6~-------|
g|-------------------------------------------|
d|-------------------------------------------|
a|-------------------------------------------|
E|-------------------------------------------|

e|--5h6p5~--5h6p5-----5h6p5~--5h6p5----------|
b|----------------6~----------------6---6-8--|
g|------------------------------------5------|
d|-------------------------------------------|
a|-------------------------------------------|
E|-------------------------------------------|

Intro2.
e|----5---5---5-6-5---5---5---5-6-8----5---5---5-6-5---5---5---5-6-8--|
b|--6---6---6-------6---6---6--------6---6---6-------6---6---6--------|
g|--------------------------------------------------------------------|
d|--------------------------------------------------------------------|
a|--------------------------------------------------------------------|
E|--------------------------------------------------------------------|

Intro3.
e|-----55---55---55-66-55-----55---55---55-66-88-----55---55---55-66-55--------------------|
b|--66----6----6-----------66----6----6-----------66----6----6----------6-6-6-6-6-6-6-6-6--|
g|-----------------------------------------------------------------------------------------|
d|-----------------------------------------------------------------------------------------|
a|-----------------------------------------------------------------------------------------|
E|-----------------------------------------------------------------------------------------|

Verse1.(silent)


Chorus.(x8)
e|-------------------------------------------|
b|--5h6x------/10-10-8-8---------------------|
g|--7-7x-7-5-------------10-10-9-9-----------|
d|-------------------------------------------|
a|-------------------------------------------|
E|-------------------------------------------|

Verse2.(silent)

Chorus.(x8)
e|-------------------------------------------|
b|--5h6x------/10-10-8-8---------------------|
g|--7-7x-7-5-------------10-10-9-9-----------|
d|-------------------------------------------|
a|-------------------------------------------|
E|-------------------------------------------|

Bridge.(x5)
e|----5---5---5-6-5---5---5---5-6-8----5---5---5-6-5---5---5---5-6-8--|
b|--6---6---6-------6---6---6--------6---6---6-------6---6---6--------|
g|--------------------------------------------------------------------|
d|--------------------------------------------------------------------|
a|--------------------------------------------------------------------|
E|--------------------------------------------------------------------|

Outro.
e|----5---5---5-6-5---5---5---5-6-5---5---5---5-6-5-5~--|
b|--6---6---6-------6---6---6-------6---6---6-------6~--|
g|------------------------------------------------------|
d|------------------------------------------------------|
a|------------------------------------------------------|
E|------------------------------------------------------|


Guitar2 - Russel.
Intro1.(x12)
e|-------------------------------------------|
b|--6-6-5-5----------------------------------|
g|----------5---5---5---5--------------------|
d|------------7---7---7---7------------------|
a|-------------------------------------------|
E|-------------------------------------------|

Verse1.(x3)               (x1)
e|-----------------------|------------8-5---5----|
b|--6-5---6-5---5--------|--6-5---6-5-----6---6--|
g|------5-----5-----5----|------5----------------|
d|----------------7---7--|-----------------------|
a|-----------------------|-----------------------|
E|-----------------------|-----------------------|

  (x3)                         (x1)
e|----5--8-8---------8-8-6-5--|----5---8-8------------------|
b|--6--6-----6-5h6-6----------|--6---6-----6----------------|
g|----------------------------|---------------/7-7-7-7-7-5--|
d|----------------------------|-----------------------------|
a|----------------------------|-----------------------------|
E|----------------------------|-----------------------------|

Chorus.(x8)
e|-------------------------------------------|
b|--5h6x------/10-10-8-8---------------------|
g|--7-7x-7-5-------------10-10-9-9-----------|
d|-------------------------------------------|
a|-------------------------------------------|
E|-------------------------------------------|

Verse2.(x8)
e|----8-----8-------8-----8-----8------------|
b|--6---6-6---6-6-5---5-5---5-5--------------|
g|-------------------------------------------|
d|-------------------------------------------|
a|-------------------------------------------|
E|-------------------------------------------|

Chorus.(x8)
e|-------------------------------------------|
b|--5h6x------/10-10-8-8---------------------|
g|--7-7x-7-5-------------10-10-9-9-----------|
d|-------------------------------------------|
a|-------------------------------------------|
E|-------------------------------------------|

Bridge.(x4)
e|----------8---8------------8---8------------8---8------------8---8----|
b|--5-6-5-6---5---6--5-6-5-6---5---6--5-6-5-6---5---6--5-6-5-6---5---6--|
g|----------------------------------------------------------------------|
d|----------------------------------------------------------------------|
a|----------------------------------------------------------------------|
E|----------------------------------------------------------------------|

Chorus.(x4)
e|-------------------------------------------|
b|--5h6x------/10-10-8-8---------------------|
g|--7-7x-7-5-------------10-10-9-9-----------|
d|-------------------------------------------|
a|-------------------------------------------|
E|-------------------------------------------|

Outro1.(x4)
e|--13x--12x-------13x--12x--------------------|
b|--13x--13x--13x--13x--13x--13x--13----13-----|
g|------------14x------------14x-----14----14--|
d|---------------------------------------------|
a|---------------------------------------------|
E|---------------------------------------------|

Outro2.
e|--5~--3~--5~--3~--8~--5~--8~--5~--8~-------|
b|--6~--5~--6~--5~--6~--6~--6~--6~--6~-------|
g|--7~--5~--7~--5~--7~--7~--7~--7~--7~-------|
d|-------------------------------------------|
a|-------------------------------------------|
E|-------------------------------------------|
Tap to rate this tab
# A B C D E F G H I J K L M N O P Q R S T U V W X Y Z