Song name
# A B C D E F G H I J K L M N O P Q R S T U V W X Y Z

Bloc Party - Plans Acoustic tab

This is not my tab, i get it at the blocparty.net, but sounds very good.

Tabbed by: Henrik Hertel - henland@nexgo.de
Comments, corrections are welcome!



Intro                            Wake up dreamer...
                             4x
E||---------0-----------0------||--------0-----------0-----|
B||------------0-----------0---||-----------0-----------0--|
G||*-----8-----------8--------*||-----8-----------8--------|
D||*--6-----------6-----------*||--------------6-----------|
A||----------------------------||--------------------------|
E||----------------------------||--4-----------------------|


--------0-----------0-----|--------0-----------0-----|
-----------0-----------0--|-----------0-----------0--|
-----8-----------8--------|-----8-----------8--------|
--------------6-----------|--------------6-----------|
--7-----------------------|--0-----------------------|
--------------------------|--------------------------|


--------0-----------0-----|--------0-----------0-----|
-----------0-----------0--|-----------0-----------0--|
-----8-----------8--------|-----8-----------8--------|
--------------6-----------|--------------6-----------|
--------------------------|--------------------------|
--4-----------------------|--4-----------------------|


--------0-----------0-----|--------0-----------0-----|
-----------0-----------0--|-----------0-----------0--|
-----8-----------8--------|-----8-----------8--------|
--------------6-----------|--------------6-----------|
--7-----------------------|--0-----------------------|
--------------------------|--------------------------|


                         I'll give you...  
--------0-----------0-----|--------0-----------0-----|
-----------0-----------0--|-----------0-----------0--|
-----8-----------8--------|-----8-----------8--------|
--------------6-----------|--------------6-----------|
--------------------------|--------------------------|
--4-----------------------|--4-----------------------|


--------0-----------0-----|--------0-----------0-----|
-----------0-----------0--|-----------0-----------0--|
-----8-----------8--------|-----8-----------8--------|
--------------6-----------|--------------6-----------|
--7-----------------------|--0-----------------------|
--------------------------|--------------------------|


--------0-----------0-----|--------0-----------0-----|
-----------0-----------0--|-----------0-----------0--|
-----8-----------8--------|-----8-----------8--------|
--------------6-----------|--------------6-----------|
--------------------------|--------------------------|
--4-----------------------|--4-----------------------|


--------0-----------0-----|--------0-----------0-----|
-----------0-----------0--|-----------0-----------0--|
-----8-----------8--------|-----8-----------8--------|
--------------6-----------|--------------6-----------|
--7-----------------------|--0-----------------------|
--------------------------|--------------------------|


--------0-----------0-----|--------0-----------0-----|
-----------0-----------0--|-----------0-----------0--|
-----8-----------8--------|-----8-----------8--------|
--------------6-----------|--------------6-----------|
--------------------------|--------------------------|
--4-----------------------|--4-----------------------|


--------0-----------0-----|--------0-----------0-----|
-----------0-----------0--|-----------0-----------0--|
-----8-----------8--------|-----8-----------8--------|
--------------6-----------|--------------6-----------|
--------------------------|--------------------------|
--4-----------------------|--4-----------------------|


                         Been training vipers...  
--------0-----------0-----|--------0-----------0-----|
-----------0-----------0--|-----------0-----------0--|
-----8-----------8--------|-----8-----------8--------|
--------------6-----------|--------------6-----------|
--------------------------|--------------------------|
--4-----------------------|--4-----------------------|


--------0-----------0-----|--------0-----------0-----|
-----------0-----------0--|-----------0-----------0--|
-----8-----------8--------|-----8-----------8--------|
--------------6-----------|--------------6-----------|
--7-----------------------|--0-----------------------|
--------------------------|--------------------------|


--------0-----------0-----|--------0-----------0-----|
-----------0-----------0--|-----------0-----------0--|
-----8-----------8--------|-----8-----------8--------|
--------------6-----------|--------------6-----------|
--------------------------|--------------------------|
--4-----------------------|--4-----------------------|


--------0-----------0-----|--------0-----------0-----|
-----------0-----------0--|-----------0-----------0--|
-----8-----------8--------|-----8-----------8--------|
--------------6-----------|--------------6-----------|
--7-----------------------|--0-----------------------|
--------------------------|--------------------------|


                         And the ravens...  
--------0-----------0-----|--------0-----------0-----|
-----------0-----------0--|-----------0-----------0--|
-----8-----------8--------|-----8-----------8--------|
--------------6-----------|--------------6-----------|
--------------------------|--------------------------|
--4-----------------------|--4-----------------------|


--------0-----------0-----|--------0-----------0-----|
-----------0-----------0--|-----------0-----------0--|
-----8-----------8--------|-----8-----------8--------|
--------------6-----------|--------------6-----------|
--7-----------------------|--0-----------------------|
--------------------------|--------------------------|

                         And the ravens...
--------0-----------0-----|--------0-----------0-----|
-----------0-----------0--|-----------0-----------0--|
-----8-----------8--------|-----8-----------8--------|
--------------6-----------|--------------6-----------|
--------------------------|--------------------------|
--4-----------------------|--4-----------------------|


--------0-----------0-----|--------0-----------0-----|
-----------0-----------0--|-----------0-----------0--|
-----8-----------8--------|-----8-----------8--------|
--------------6-----------|--------------6-----------|
--7-----------------------|--0-----------------------|
--------------------------|--------------------------|


                          I've got a taste...                                          
--------------------------||---0----0----0----0----|--0----0----0----0----|
--0--0--0--0--0--0--0--0--||---5----5----5----5----|--7----7----7----7----|
--6--6--6--6--6--6--6--6--||*--4----4----4----4----|--8----8----8----8----|
--7--7--7--7--7--7--7--7--||*--2----2----2----2----|--9----9----9----9----|
--0--0--0--0--0--0--0--0--||---4----4----4----4----|--9----9----9----9----|
--------------------------||-----------------------|----------------------|


                                              Wake up sleepyhead...
                                            4x
--0----0----0----0----|--0----0----0----0-----||--------0-----------0-----|
--5----5----5----5----|--4----4----4----4-----||-----------0-----------0--|
--6----6----6----6----|--6----6----6----6----*||-----8-----------8--------|
--7----7----7----7----|--7----7----7----7----*||--------------6-----------|
--0----0----0----0----|--0----0----0----0-----||--------------------------|
----------------------|-----------------------||--4-----------------------|


--------0-----------0-----|--------0-----------0-----|
-----------0-----------0--|-----------0-----------0--|
-----8-----------8--------|-----8-----------8--------|
--------------6-----------|--------------6-----------|
--7-----------------------|--0-----------------------|
--------------------------|--------------------------|


--------0-----------0-----|--------0-----------0-----|
-----------0-----------0--|-----------0-----------0--|
-----8-----------8--------|-----8-----------8--------|
--------------6-----------|--------------6-----------|
--------------------------|--------------------------|
--4-----------------------|--4-----------------------|


--------0-----------0-----|--------0-----------0-----|
-----------0-----------0--|-----------0-----------0--|
-----8-----------8--------|-----8-----------8--------|
--------------6-----------|--------------6-----------|
--7-----------------------|--0-----------------------|
--------------------------|--------------------------|


                         Whipcrack speed jump...
--------0-----------0-----|--------0-----------0-----|
-----------0-----------0--|-----------0-----------0--|
-----8-----------8--------|-----8-----------8--------|
--------------6-----------|--------------6-----------|
--------------------------|--------------------------|
--4-----------------------|--4-----------------------|


--------0-----------0-----|--------0-----------0-----|
-----------0-----------0--|-----------0-----------0--|
-----8-----------8--------|-----8-----------8--------|
--------------6-----------|--------------6-----------|
--7-----------------------|--0-----------------------|
--------------------------|--------------------------|


--------0-----------0-----|--------0-----------0-----|
-----------0-----------0--|-----------0-----------0--|
-----8-----------8--------|-----8-----------8--------|
--------------6-----------|--------------6-----------|
--------------------------|--------------------------|
--4-----------------------|--4-----------------------|


--------0-----------0-----|--------0-----------0-----|
-----------0-----------0--|-----------0-----------0--|
-----8-----------8--------|-----8-----------8--------|
--------------6-----------|--------------6-----------|
--7-----------------------|--0-----------------------|
--------------------------|--------------------------|


                          We make plans…                                        
--------------------------||---0----0----0----0----|--0----0----0----0----|
--0--0--0--0--0--0--0--0--||---5----5----5----5----|--7----7----7----7----|
--6--6--6--6--6--6--6--6--||*--4----4----4----4----|--8----8----8----8----|
--7--7--7--7--7--7--7--7--||*--2----2----2----2----|--9----9----9----9----|
--0--0--0--0--0--0--0--0--||---4----4----4----4----|--9----9----9----9----|
--------------------------||-----------------------|----------------------|


                                            4x
--0----0----0----0----|--0----0----0----0-----||--0----0----0----0----|
--5----5----5----5----|--4----4----4----4-----||--0----0----0----0----|
--6----6----6----6----|--6----6----6----6----*||--6----6----6----6----|
--7----7----7----7----|--7----7----7----7----*||--7----7----7----7----|
--0----0----0----0----|--0----0----0----0-----||--0----0----0----0----|
----------------------|-----------------------||----------------------|

  
--0----0----0----0----|--0----0----0----0----|--0----0----0----0----|
--0----0----0----0----|--4----4----4----4----|--4----4----4----4----|
--6----6----6----6----|--6----6----6----6----|--6----6----6----6----|
--7----7----7----7----|--7----7----7----7----|--7----7----7----7----|
--0----0----0----0----|--0----0----0----0----|--0----0----0----0----|
----------------------|----------------------|----------------------|

 
--0----0----0----0----|--0----0----0----0----|--0----0----0----0----|
--5----5----5----5----|--5----5----5----5----|--5----5----5----5----|
--6----6----6----6----|--6----6----6----6----|--6----6----6----6----|
--7----7----7----7----|--7----7----7----7----|--7----7----7----7----|
--0----0----0----0----|--0----0----0----0----|--0----0----0----0----|
----------------------|----------------------|----------------------|

 
--5----5----5----5----||-----------------------|----------------------|
--5----5----5----5----||---5----5----5----5----|--7----7----7----7----|
--6----6----6----6----||*--4----4----4----4----|--8----8----8----8----|
--7----7----7----7----||*--2----2----2----2----|--9----9----9----9----|
--0----0----0----0----||---4----4----4----4----|--9----9----9----9----|
----------------------||-----------------------|----------------------|


                                            4x                            4x
----------------------|-----------------------||---------0-----------0------||
--5----5----5----5----|--5----5----5----5-----||------------0-----------0---||
--6----6----6----6----|--6----6----6----6----*||*-----8-----------8--------*||
--7----7----7----7----|--7----7----7----7----*||*--6-----------6-----------*||
--0----0----0----0----|--0----0----0----0-----||----------------------------||
----------------------|-----------------------||----------------------------||

                                      
-------------------|-------------------|-------||
-------------------|-------------------|-------||
-------------------|-----that's it!----|-------||
--6----------------|-------------------|-------||
-------------------|-------------------|-------||
-------------------|-------------------|-------||
Tap to rate this tab
# A B C D E F G H I J K L M N O P Q R S T U V W X Y Z