Song name
# A B C D E F G H I J K L M N O P Q R S T U V W X Y Z

Bloc Party - This Modern Love tab

Hi! i seen them play this live i think its mostly right :)
feel free to correct me 



Intro/verse
Kele

E|----------------|----------------|----------------|------------------|
B|----------------|----------------|----------------|------------------|
G|--9---9---9---9-|--9---9---9---9-|--9---9---9---9-|--9---9---9---9---|
D|----------------|----------------|----------------|------------------|
A|----------------|----------------|-7---7---7---7--|-8---8---8---7----|
E|-8---8---8---8--|8---8---7---7---|----------------|------------------|

E|----------------|----------------|----------------|
B|----------------|----------------|----------------|
G|--9---9---9---9-|--9---9---9---9-|--9---9---9---9-|
D|----------------|----------------|----------------|
A|----------------|----------------|0---0---0---0---|
E|-8---8---8---8--|8---8---7---7---|----------------|

Russell

E|-----------------|----------------|----------------|-----------------|
B|13------13-------|12-----13-------|13-----13-------|-12-----13-------|
G|----12------12---|---12------12---|---12------12---|----12------12---|
D|--10--10--10--10-|-10--10--10--10-|-10--10--10--10-|--10--10--10--10-|
A|-----------------|----------------|----------------|-----------------|
E|-----------------|----------------|----------------|-----------------|


E|-----------------|----------------|----------------|
B|13------13-------|12-----13-------|13-----13-------|
G|----12------12---|---12------12---|---12------12---|
D|--10--10--10--10-|-10--10--10--10-|-10--10--10--10-|
A|-----------------|----------------|----------------|
E|-----------------|----------------|----------------|

Chorus 1

Kele

E|--------------|--------------|--------------|--------------|
B|--------------|--------------|--------------|--------------|
G|--5--5--5--5--|--5--5--5--5--|--5--5--5--5--|--5--5--5--5--|
D|--------------|--------------|--------------|--------------|
A|-0--0--0--0---|--------------|-3--3--3--3---|-5--5--5--3---|
E|--------------|-3--3--0--0---|--------------|--------------|

E|--------------|--------------|--------------|
B|--------------|--------------|--------------|
G|--5--5--5--5--|--5--5--5--5--|--5--5--5--5--|
D|--------------|--------------|--------------|
A|-0--0--0--0---|--------------|-3--3--3--3---|
E|--------------|-3--3--0--0---|--------------|


Russell

E|------------------|-------------|------------------|-------------|
B|------------------|-------------|------------------|-------------|
G|--------12-10-9---|9------------|--------12-10-9---|9------------|
D|10-10-10-------12-|-10-10-10-12-|10-10-10-------12-|-10-10-10-12-|
A|------------------|-------------|------------------|-------------|
E|------------------|-------------|------------------|-------------|


E|------------------|--------------|------------------|
B|------------------|--------------|------------------|
G|--------12-10-9---|9-------------|--------10-9-12---|  
D|10-10-10-------12-|-10-10-10-12--|10-10-10----------|
A|------------------|--------------|------------------|
E|------------------|--------------|------------------|


Chorus 2

Kele plays same as chorus 1

Russell


E|-------------------|--------------|------------------|--------------|
B|-------------------|--------------|------------------|--------------|
G|---------12-10-9---|9-9--9--9-----|---------12-10-9--|9-9--9--9-----|
D|10-10-10-10-----12-|--10-10-10-12-|10-10-10-10-----12|--10-10-10-12-|
A|-------------------|--------------|------------------|--------------|
E|-------------------|--------------|------------------|--------------|


E|-------------------|--------------|--------------------|
B|-------------------|--------------|--------------------|
G|---------12-10-9---|9-9--9--9-----|------9---10-9--12--|
D|10-10-10-10-----12-|--10-10-10-12-|10-10-10--10-10-10--|    x2
A|-------------------|--------------|--------------------|
E|-------------------|--------------|--------------------|


then 



E|----------------|------------------|--------------|--------8-----|
B|5-5-5/12-12-12--|10-10-10\3--3-3-3-|------8-6-5---|5-5-5-----8---|
G|5-5-5/12-12-12--|10-10-10\4--4-4-4-|5-5-5-5----7--|--5-5-------5-|
D|----------------|------------------|--------------|--------------|
A|----------------|------------------|---------------|--------------|
E|----------------|------------------|---------------|--------------|

E|-----------------------|----------------------|-------------|
B|5-5-5/12-12-12-12-10-10|-10-10-10-15---15-15--|--------5--8-|
G|5-5-5/12-12-12-12-10-10|-10-10-10-16---16-16--|-5-5-5---5---|
D|-----------------------|----------------------|-------------|
A|-----------------------|----------------------|-------------|
E|-----------------------|---------------------|--------------|


Solo

Kele doesnt play

Russell

E|7-7-7---------|-----------------|7-7-7-8-8-8----|---------------|
B|-----8-8-8----|-------10-10-8-8-|-----------8-8-|8--------------|
G|----------7-7-|7-9-9-9----------|---------------|-7-7-7-9-9-7-7-|
D|--------------|-----------------|---------------|---------------|
A|--------------|-----------------|---------------|---------------|
E|--------------|-----------------|---------------|---------------|

E|--------15---------|--15--------------|-------15--------|-15--------------|
B|12-13-12--15-12-13-|12--15-12-13-12-12|12-13-12-15-12-13|12--15-12-13-12-12|
G|-------------------|-----------------|------------------|-----------------|
D|-------------------|-----------------|------------------|-----------------|
A|-------------------|-----------------|------------------|-----------------|
E|-------------------|-----------------|------------------|-----------------|


Kele  comes back  in here 

E|-------------------|-----------------|------------------|-----------------|
B|-------------------|-----------------|------------------|-----------------|
G|-------------------|-----------------|------------------|-----------------|
D|-10---10---10---10-|-10---10/12---12/|\10---10---10---10-|-10---10/12---12/|
A|-------------------|-----------------|------------------|-----------------|
E|-------------------|-----------------|------------------|-----------------|

E|-------------------|-----------------|------------------|-----------------|
B|-------------------|-----------------|------------------|-----------------|
G|-------------------|-----------------|------------------|-----------------|
D|\10---10---10---10-|-10---10/12---12/|\10---10---10---10-|-10---10/12---12-|
A|-------------------|-----------------|------------------|-----------------|
E|-------------------|-----------------|------------------|-----------------|


E|-------------------|-----------------|------------------|-----------------|
B|-------------------|-----------------|------------------|-----------------|
G|-9----9----9----9--|-9----9---10---10-|-9----9---9----9-|-9---9---10---10-|
D|-------------------|-----------------|------------------|-----------------|
A|-------------------|-----------------|------------------|-----------------|
E|-------------------|-----------------|------------------|-----------------|


E|---------------|-------------------|-------------------|--------------|
B|---------------|-------------------|-------------------|--------------|
G|-9---9---9---9-|-------------------|-------------------|--------------|
D|---------------|-12---12---12---12-|-10---10---10---10-|-10---10---10-|
A|---------------|-------------------|-------------------|--------------|
E|---------------|-------------------|-------------------|--------------|

 
russell

E|---------------|----------------|---------------|-----------------|
B|5--6--5--6--8--|---6-6-5-6-8-6--|-8-6-6-5--6--8-|---6-6-5-6-5-----|
G|5--5--5--5--5--|-5-5-5-5-5-5-5--|-5-5-5-5--5--5-|-5-5-5-5-5-5-5-5-|
D|5--5--5--5--5--|-5-5-5-5-5-5-5--|-5-5-5-5--5--5-|-5-5-5-5-5-5-5-5-|
A|---------------|----------------|---------------|-----------------|
E|---------------|----------------|---------------|-----------------|


E|7-7-7-7-7-7-7-7-|7-7-7---------7-7-|7-7-7-7-7-7-7-7-|7-7-7---------7-7-|
B|8-8-8-8-8-8-8-8-|8-8-8-8-8-8-8-8-8-|8-8-8-8-8-8-8-8-|8-8-8-8-8-8-8-8-8-|
G|----------------|------5-5-5-5-----|----------------|------5-5-5-5-----|
D|----------------|------------------|----------------|------------------|
A|----------------|------------------|----------------|------------------|
E|----------------|------------------|----------------|------------------|


E|7-7-8-8-7-7-8-8-|7-7-8-8-7-8-7-7-7-|7-7-8-8-7-7-8-8-|7-7-8-8-7-8-7-7-7-|
B|8-8-8-8-8-8-8-8-|8-8-8-8-8-8-8-8-8-|8-8-8-8-8-8-8-8-|8-8-8-8-8-8-8-8-8-|
G|----------------|------------------|----------------|------------------|
D|----------------|------------------|----------------|------------------|
A|----------------|------------------|----------------|------------------|
E|----------------|------------------|----------------|------------------|


E|7-7-7-7-7-7-7-7-|7-7-7-7-7-7-7-7-7-|7-7-7-7-7-7-7-7-|7-7-7-7-7-7-7-7-7-|
B|8-8-8-8-8-8-8-8-|8-8-8-8-8-8-8-8-8-|8-8-8-8-8-8-8-8-|8-8-8-8-8-8-8-8-8-|
G|----------------|------------------|----------------|------------------|
D|----------------|------------------|----------------|------------------|
A|----------------|------------------|----------------|------------------|
E|----------------|------------------|----------------|------------------|

end on 

E|8---------------|
B|8---------------|
G|----------------|
D|----------------|
A|----------------|
E|----------------|


then Kele plays intro and ends on

E|----------------|
B|----------------|
G|----------------|
D|--0-------------|
A|----------------|
E|--8-------------|

Tap to rate this tab
 
# A B C D E F G H I J K L M N O P Q R S T U V W X Y Z