Song name
# A B C D E F G H I J K L M N O P Q R S T U V W X Y Z

Bloc Party - Plans Acoustic tab

Help us improve GuitareTab! Take a short survey!
There are 2 two guitars here for the most, with a 3rd at the end. 1 & 2 are steel string acoustics, while the 3rd is

electric with some effects. I've made the 1st guitar so it sounds the same as the song on its own. Read the asterixs to the

side, they should help. Guitar 1 is always on the first line.

Chords:


C#M x46674
B   x24442
A   x02220


Intro

Guitars 1 & 2

e|------0-------0----|
B|----4---4---4---4--|
G|--1-------1--------| x4
D|-------------------|
A|-------------------|
E|-------------------|

e|-------------------|
B|-------------------|
G|-------------------|
D|--6-------6--------|
A|-------------------|
E|-------------------|


Verse 1

   Wake     Up         Dream -  er    It's Happ  - ening   without      you..

e|------0-------0----|------0-------0----|------0-------0----|------0-------0----|    -|With 2 guitars, you may not
B|----4---4---4---4--|----4---4---4---4--|----4---4---4---4--|----4---4---4---4--------|          need to change the 1st guitar
G|--1-------1--------|----------1--------|----------1--------|--1-------1--------| x4--|         just repeat bar one over and
D|-------------------|--2----------------|--1----------------|-------------------------|            over. I don't know, can't play
A|-------------------|-------------------|-------------------|-------------------------|            both at once!
E|-------------------|-------------------|-------------------|-------------------------|

e|-------------------|-------------------|-------------------|-------------------|
B|-------------------|-------------------|-------------------|-------------------|
G|-------------------|-------------------|-------------------|-------------------|
D|----------6--------|----------6--------|----------6--------|----------6--------|
A|-------------------|--7----------------|--6----------------|-------------------|
E|--4----------------|-------------------|-------------------|--4----------------|

e|------0-------0----|
B|----4---4---4---4--|
G|----------1--------| x4
D|--1----------------|
A|-------------------|
E|-------------------|

e|-------------------|
B|-------------------|
G|-------------------|
D|----------6--------|
A|-------------------|
E|--4----------------|

Verse 2

     Been training vipers to come for you...
e|------0-------0----|------0-------0----|------0-------0----|------0-------0----|
B|----4---4---4---4--|----4---4---4---4--|----4---4---4---4--|----4---4---4---4--|
G|--1-------1--------|----------1--------|----------1--------|--1-------1--------| x3
D|-------------------|--2----------------|--1----------------|-------------------|
A|-------------------|-------------------|-------------------|-------------------|
E|-------------------|-------------------|-------------------|-------------------|

e|-------------------|-------------------|-------------------|-------------------|
B|-------------------|-------------------|-------------------|-------------------|
G|-------------------|-------------------|-------------------|-------------------|
D|----------6--------|----------6--------|----------6--------|----------6--------|
A|-------------------|--7----------------|--6----------------|-------------------|
E|--4----------------|-------------------|-------------------|--4----------------|


 Make your peace...
e|------0-------0----|------0-------0----|------0-------0----|--0-0-0-0-0-0-0-0--|
B|----4---4---4---4--|----4---4---4---4--|----4---4---4---4--|--4-4-4-4-4-4-4-4--|
G|--1-------1--------|----------1--------|----------1--------|--1-1-1-1-1-1-1-1--|
D|-------------------|--2----------------|--1----------------|-------------------|
A|-------------------|-------------------|-------------------|-------------------|
E|-------------------|-------------------|-------------------|-------------------|

e|-------------------|-------------------|-------------------|-------------------|
B|-------------------|-------------------|-------------------|-------------------|
G|-------------------|-------------------|-------------------|-------------------|
D|----------6--------|----------6--------|----------6--------|-------------------|
A|-------------------|--7----------------|--6----------------|-------------------|
E|--4----------------|-------------------|-------------------|-------------------|


Guitar 1

C#M       B           			** The strums are in straight quavers with Accents on the 1st, 4th and 7th notes
I've got a taste for blood	           It helps to count 1-2-3 1-2-3 1-2 With accents on 1s.
A
Leave the weak, leave the young
C#M       B
I've got a taste for blood
A
I'm walking out without you
C#M          B
You will kill or be killed
A
It's about progress
C#M       B             A
I've got a taste for blood


Verse 3

    Wake up Sleepy Head..
e|------0-------0----|------0-------0----|------0-------0----|------0-------0----|
B|----4---4---4---4--|----4---4---4---4--|----4---4---4---4--|----4---4---4---4--|
G|--1-------1--------|----------1--------|----------1--------|--1-------1--------| x3
D|-------------------|--2----------------|--1----------------|-------------------|
A|-------------------|-------------------|-------------------|-------------------|
E|-------------------|-------------------|-------------------|-------------------|

e|-------------------|-------------------|-------------------|-------------------|
B|-------------------|-------------------|-------------------|-------------------|
G|-------------------|-------------------|-------------------|-------------------|
D|----------6--------|----------6--------|----------6--------|----------6--------|
A|-------------------|--7----------------|--6----------------|-------------------|
E|--4----------------|-------------------|-------------------|--4----------------|

 We're all scared of the future..
e|------0-------0----|------0-------0----|------0-------0----|--0-0-0-0-0-0-0-0--|
B|----4---4---4---4--|----4---4---4---4--|----4---4---4---4--|--4-4-4-4-4-4-4-4--|
G|--1-------1--------|----------1--------|----------1--------|--1-1-1-1-1-1-1-1--|
D|-------------------|--2----------------|--1----------------|-------------------|
A|-------------------|-------------------|-------------------|-------------------|
E|-------------------|-------------------|-------------------|-------------------|

e|-------------------|-------------------|-------------------|-------------------|
B|-------------------|-------------------|-------------------|-------------------|
G|-------------------|-------------------|-------------------|-------------------|
D|----------6--------|----------6--------|----------6--------|-------------------|
A|-------------------|--7----------------|--6----------------|-------------------|
E|--4----------------|-------------------|-------------------|-------------------|


Guitar 1:

C#m          B
We make plans for big times
A
Get bogged down, distracted
C#m          B
We make plans for good times
A
All neon, all surface
C#m       B         A
So kiss me before it all gets complicated
C#m       B           A
I've got a taste for blood


Guitar 1:

e|--0-0-0-0-0-0-0-0--|--0-0-0-0-0-0-0-0--|--0-0-0-0-0-0-0-0--|--0-0-0-0-0-0-0-0--|
B|--2-2-2-2-2-2-2-2--|--2-2-2-2-2-2-2-2--|--4-4-4-4-4-4-4-4--|--4-4-4-4-4-4-4-4--|
G|--4-4-4-4-4-4-4-4--|--4-4-4-4-4-4-4-4--|--4-4-4-4-4-4-4-4--|--4-4-4-4-4-4-4-4--|
D|--2-2-2-2-2-2-2-2--|--2-2-2-2-2-2-2-2--|--2-2-2-2-2-2-2-2--|--2-2-2-2-2-2-2-2--|
A|--0-0-0-0-0-0-0-0--|--0-0-0-0-0-0-0-0--|--0-0-0-0-0-0-0-0--|--0-0-0-0-0-0-0-0--|
E|-------------------|-------------------|-------------------|-------------------|


e|--0-0-0-0-0-0-0-0--|--0-0-0-0-0-0-0-0--|--0-0-0-0-0-0-0-0--|--0-0-0-0-0-0-0-0--|
B|--5-5-5-5-5-5-5-5--|--5-5-5-5-5-5-5-5--|--5-5-5-5-5-5-5-5--|--5-5-5-5-5-5-5-5--|
G|--4-4-4-4-4-4-4-4--|--4-4-4-4-4-4-4-4--|--4-4-4-4-4-4-4-4--|--4-4-4-4-4-4-4-4--|
D|--2-2-2-2-2-2-2-2--|--2-2-2-2-2-2-2-2--|--2-2-2-2-2-2-2-2--|--2-2-2-2-2-2-2-2--|
A|--0-0-0-0-0-0-0-0--|--0-0-0-0-0-0-0-0--|--0-0-0-0-0-0-0-0--|--0-0-0-0-0-0-0-0--|
E|-------------------|-------------------|-------------------|-------------------|


Guitars 1 & 3

e|--4-4-4-4-4-4-4-4--|--2-2-2-2-2-2-2-2--|--0-0-0-0-0-0-0-0--|--0-0-0-0-0-0-0-0--|
B|--5-5-5-5-5-5-5-5--|--4-4-4-4-4-4-4-4--|--2-2-2-2-2-2-2-2--|--2-2-2-2-2-2-2-2--|
G|--6-6-6-6-6-6-6-6--|--4-4-4-4-4-4-4-4--|--2-2-2-2-2-2-2-2--|--2-2-2-2-2-2-2-2--|
D|--6-6-6-6-6-6-6-6--|--4-4-4-4-4-4-4-4--|--2-2-2-2-2-2-2-2--|--2-2-2-2-2-2-2-2--|
A|--4-4-4-4-4-4-4-4--|--2-2-2-2-2-2-2-2--|--0-0-0-0-0-0-0-0--|--0-0-0-0-0-0-0-0--|
E|-------------------|-------------------|-------------------|-------------------|

e|-------------------|-------------------|-------------------|-------------------|
B|-------------------|-------------------|-------------------|-------------------|
G|-------------------|-------------------|-------------------|-------------------|
D|-------------------|-------------------|-------------------|-------------------|   **If you can't re-create guitar 3's
A|-14----------------|----------11-------|--12------11-------|-----------16------|	sound, try tremelo picking.
E|-------------------|--14---------------|-------------------|--12---------------|


e|--4-4-4-4-4-4-4-4--|--2-2-2-2-2-2-2-2--|--0-0-0-0-0-0-0-0--|--0-0-0-0-0-0-0-0--|
B|--5-5-5-5-5-5-5-5--|--4-4-4-4-4-4-4-4--|--2-2-2-2-2-2-2-2--|--2-2-2-2-2-2-2-2--|
G|--6-6-6-6-6-6-6-6--|--4-4-4-4-4-4-4-4--|--2-2-2-2-2-2-2-2--|--2-2-2-2-2-2-2-2--|
D|--6-6-6-6-6-6-6-6--|--4-4-4-4-4-4-4-4--|--2-2-2-2-2-2-2-2--|--2-2-2-2-2-2-2-2--|
A|--4-4-4-4-4-4-4-4--|--2-2-2-2-2-2-2-2--|--0-0-0-0-0-0-0-0--|--0-0-0-0-0-0-0-0--|
E|-------------------|-------------------|-------------------|-------------------|

e|-------------------|-------------------|-------------------|-------------------|
B|-------------------|-------------------|-------------------|-------------------|
G|-------------------|-------------------|-------------------|-------------------|
D|-------------------|-------------------|-------------------|-------------------|
A|-14----------------|-------------------|--12---------------|--11---------------|
E|-------------------|--11------12-------|-------------------|-------------------|

e|--4-4-4-4-4-4-4-4--|--2-2-2-2-2-2-2-2--|--0-0-0-0-0-0-0-0--|--0-0-0-0-0-0-0-0--|
B|--5-5-5-5-5-5-5-5--|--4-4-4-4-4-4-4-4--|--2-2-2-2-2-2-2-2--|--2-2-2-2-2-2-2-2--|
G|--6-6-6-6-6-6-6-6--|--4-4-4-4-4-4-4-4--|--2-2-2-2-2-2-2-2--|--2-2-2-2-2-2-2-2--|
D|--6-6-6-6-6-6-6-6--|--4-4-4-4-4-4-4-4--|--2-2-2-2-2-2-2-2--|--2-2-2-2-2-2-2-2--|
A|--4-4-4-4-4-4-4-4--|--2-2-2-2-2-2-2-2--|--0-0-0-0-0-0-0-0--|--0-0-0-0-0-0-0-0--|
E|-------------------|-------------------|-------------------|-------------------|

e|-------------------|-------------------|-------------------|-------------------|
B|-------------------|-------------------|-------------------|-----------14------|
G|-------------------|----------13-------|--14------13-------|-------------------|
D|-------------------|-------------------|-------------------|--14---------------|
A|-14----------------|-------------------|-------------------|-------------------|
E|-------------------|--14---------------|-------------------|-------------------|

e|--4-4-4-4-4-4-4-4--|--2-2-2-2-2-2-2-2--|--0-0-0-0-0-0-0-0--|--0-0-0-0-0-0-0-0--|
B|--5-5-5-5-5-5-5-5--|--4-4-4-4-4-4-4-4--|--2-2-2-2-2-2-2-2--|--2-2-2-2-2-2-2-2--|
G|--6-6-6-6-6-6-6-6--|--4-4-4-4-4-4-4-4--|--2-2-2-2-2-2-2-2--|--2-2-2-2-2-2-2-2--|
D|--6-6-6-6-6-6-6-6--|--4-4-4-4-4-4-4-4--|--2-2-2-2-2-2-2-2--|--2-2-2-2-2-2-2-2--|
A|--4-4-4-4-4-4-4-4--|--2-2-2-2-2-2-2-2--|--0-0-0-0-0-0-0-0--|--0-0-0-0-0-0-0-0--|
E|-------------------|-------------------|-------------------|-------------------|

e|-------------------|-------------------|-------------------|-------------------|
B|-------------------|--16------17-------|-------------------|-------------------|
G|--16---------------|-------------------|--14---------------|--13---------------|
D|-------------------|-------------------|-------------------|-------------------|
A|-------------------|-------------------|-------------------|-------------------|
E|-------------------|-------------------|-------------------|-------------------|

Guitar 3 fades, let the G String ring


Guitar 1 & 2


e|------0-------0----|
B|----4---4---4---4--|
G|--1-------1--------| x8
D|-------------------|
A|-------------------|
E|-------------------|

e|-------------------|
B|-------------------|
G|-------------------|
D|--6-------6--------|
A|-------------------|
E|-------------------|

e|-------------------|
B|-------------------|
G|--1----------------|
D|-------------------|
A|-------------------|
E|-------------------|

e|-------------------|
B|-------------------|
G|-------------------|
D|--6----------------|
A|-------------------|
E|-------------------|
Related for Plans Acoustic tab