Guitaretab - guitar tabs
Song name
# A B C D E F G H I J K L M N O P Q R S T U V W X Y Z

Bloc Party - Shes Hearing Voices tab

right i couldnt find a decent tab for this really cool song so i looked everywhere
and luckly found one. i copied it off another site and it sounds pretty good though
i havent tried the whole thing yet but what i did do sounds good. im sorry if i annoyed
the person who tabbed this out and i am really grateful to you for doing this. also
please dont act like idiots and come to the comments and say theres nothing great about
you, you just copied it, your taking credit for someone elses work and all that shit.
READ BEFORE SPEAKING! im not claiming credit im clearly stating that this is NOT my work
also if it doesnt come up right then copy and paste it to word and then print it.

standard tuning (eadgbe)

(0:03-1:12)
Guitar 1
-10-10-10-10-10-10-10-10-10-10-10-10-10-10-10-10-10-10-10-10-10-10-10-10-|
-------------------------------------------------------------------------|
-------------------------------------------------------------------------|
-------------------------------------------------------------------------|
-------------------------------------------------------------------------|
-------------------------------------------------------------------------|

repeat that between the time and practically the whole song for guitar 1. listen to it 
know how much and when.

(1:13-1:15)
Guitar 2
-5-5-5-5-5-5-5-5-5-5-5-5-5-5-5-|
-6-6-6-6-6-6-6-6-6-6-6-6-6-6-6-|
-7-7-7-7-7-7-7-7-7-7-7-7-7-7-7-|
-5-5-5-5-5-5-5-5-5-5-5-5-5-5-5-|
-------------------------------|
-------------------------------|

(1:19-1:22)
-5-5-5-5-5-5-5-5-5-5-5-5-5-5-5-|
-6-6-6-6-6-6-6-6-6-6-6-6-6-6-6-|
-7-7-7-7-7-7-7-7-7-7-7-7-7-7-7-|
-5-5-5-5-5-5-5-5-5-5-5-5-5-5-5-|
-------------------------------|
-------------------------------|

(1:25-1:29)
-8-8-8-8-8-8-8-8-8-8-8-8-8-8-8-|
-6-6-6-6-6-6-6-6-6-6-6-6-6-6-6-|
-5-5-5-5-5-5-5-5-5-5-5-5-5-5-5-|
-------------------------------|
-------------------------------|
-------------------------------|

(1:31-1:35)
-5-5-5-5-5-5-5-5-5-5-5-5-5-5-5-|
-6-6-6-6-6-6-6-6-6-6-6-6-6-6-6-|
-5-5-5-5-5-5-5-5-5-5-5-5-5-5-5-|
-------------------------------|
-------------------------------|
-------------------------------|

(1:37-1:50)
------------------------------------|
------------6-----------------6-----|
-5-5-5-5h7---7p5---5-5-5-5h7---5-7-|
------------------------------------|
------------------------------------|
------------------------------------| x4

(1:51-2:04)
----------------------|
-5-5-5---5/-6-6-6-----|
-5-5-5---5/-7-7-7-----|
----------------------|
----------------------|
----------------------| x8

(2:07-2:30)
-5~-6~-8~-8~-|
-6~-6~-6~-6~-|
-7~-7~-5~-5~-|
-7~-7~-------|
-------------|
-------------| x2
[ Tab from: http://www.guitaretab.com/b/bloc-party/66948.html ]
(2:32-2:57)
-----------------------------------------------------------------------------|
-----6---6-5h6-------6---6-5h6--------8---8-6h8------------13----13-13p11-10-|
---7---7-------7---7---7-------7----9---9-------9-------10----10-------------|
-7---------------8---------------10---------------10-12----------------------|
-----------------------------------------------------------------------------|
-----------------------------------------------------------------------------| x2

Solo
(2:58-3:24)
-------------------------------------------------------|
-----------------------6p0-8p0-10p0-11p0-11p0----------|
-5--5-5-5-5-5-5h7~-5h7------------------------10-------|
-------------------------------------------------10-12-|
-------------------------------------------------------|
-------------------------------------------------------|

------------------------------------------------|
-10h11h13---------------------------------------|
----------10-10h12p10----5h7p5---5-5-5-5-5-5h7~-|
----------------------10-------7----------------|
------------------------------------------------|
------------------------------------------------|

----------------------------------------------------------------|
-3-3-3-x-3-3-3-x-3-3-3-x-3-3-3-x-3-3-3-x-3-3-3-x-3-3-3-x-3-3-3--|
-5-5-5-x-5-5-5-x-5-5-5-x-5-5-5-x-5-5-5-x-5-5-5-x-5-5-5-x-5-5-5--|
----------------------------------------------------------------|
----------------------------------------------------------------|
----------------------------------------------------------------|

------------------------------------------------------------------------------------|
------------------------------------------------------------------------------------|
--12b12b12b12b12b12b12b12b-12p10----10-------------12p10----10----------------------|
---------------------------------12----10h12p10----------12----10h12p10-------10-12-|
------------------------------------------------12----------------------12-12-------|
------------------------------------------------------------------------------------|

--------------------------------------------------------------------------|
--------------------------------------------------------------------------|
-10-10-10-12-12-12-10-10-10-7-7-7-7-7-5-5-5-7-7-7-5-5-5-2-2-2-2-2-5-5-5-2-|
--------------------------------------------------------------------------|
--------------------------------------------------------------------------|
--------------------------------------------------------------------------|

-------------------------------------|
-------------------------------------|
-5-5h7-7-5-5h7-7-5-5h7-7-5-5h7-7-19/-|
-------------------------------------|
-------------------------------------|
-------------------------------------|

enjoy................
Related for Shes Hearing Voices tab