Song name
# A B C D E F G H I J K L M N O P Q R S T U V W X Y Z

Bloc Party - Pioneers tab

-------------------------------------------------------------------------------
			     Pioneers - From Autumn to Ashes
-------------------------------------------------------------------------------
Tabbed by: rottenkidmikey
Tuning: Drop D

Intro :00-:10
e|---------8p0-5h6p3--------8p0-5h6p3--------8p0-5h6p3-------------8p0-5h6p3-|
B|------5h6--------------5h6--------------5h6-------------------5h6----------|
G|---------------------------------------------------------------------------|
D|-00000------------00000------------88888------------1010101010-------------|
A|-00000------------00000------------88888------------1010101010-------------|
D|-00000------------00000------------88888------------1010101010-------------|

Verse 1 :11-:30
e|---865----865--------------------------------------865----865--------------|
B|-56---8-56---8-----------------------------------56---8-56---8-------------|
G|--------------10/12/14/15/14/12-10/12/14/15/14/12-------------10/12/14/15/-|
D|---------------x/-x/-x/-x/-x/-x--x/-x/-x/-x/-x/-x--------------x/-x/-x/-x/-|
A|---------------8/10/12/13/12/10--8/10/12/13/12/10--------------8/10/12/13/-|
D|---------------------------------------------------------------------------|

cont...
e|-------------------------------|
B|-------------------------------|
G|-14/12-10/12/14/15/17/15/14/12-|
D|--x/-x--x/-x/-x/-x/-x/-x/-x/-x-|
A|-12/10--8/10/12/13/15/13/12/10-|
D|-------------------------------|

Pre-Chorus x5-6 :31-:45
e|---8-------|
B|-66-6-55---|
G|--------77-|
D|-----------|
A|-----------|
D|-----------|

Chorus x2 :46-1:06
e|---------8-----------8-----------8-----53-65-|
B|-5h6p5-65-65-5h6p5-65-65-5h6p5-65-65-65------|
G|------7-----------7-----------7--------------|
D|---------------------------------------------|
A|---------------------------------------------|
D|---------------------------------------------|

Post Chorus 1:07-1:09
e|---------8p0-5h6p3-|
B|------5h6----------|
G|-------------------|
D|-00000-------------|
A|-00000-------------|
D|-00000-------------|

Verse 2 1:10-1:29
e|-------------------------------------------------------------------865----8|
B|-----------------------------------------------------------------56---8-56-|
G|---------------------------------------------------------------------------|
D|-00000-3p02p0--00000-3p02p03h5-88888-3p02p0--1010101010-3p02p03h5----------|
A|-00000-------3-00000-----------88888-------3-1010101010--------------------|
D|-00000---------00000-----------88888---------1010101010--------------------|

cont...
e|-65-------------------------------------------|
B|---8------------------------------------------|
G|----10/12/14/15/14/12-10/12/14/15/17/15/14/12-|
D|-----x/-x/-x/-x/-x/-x--x/-x/-x/-x/-x/-x/-x/-x-|
A|-----8/10/12/13/12/10--8/10/12/13/15/13/12/10-|
D|----------------------------------------------|

Pre-Chorus x5-6 1:30-1:44

Chorus x2 1:45-2:07

Bridge 2:08-2:50
e|-5~------------------------------------------------------------------------|
B|---------------------------10--10-8-----------------------10--10h11-1081011|
G|---drums---------------------------10/9------------------------------------|
D|---------87-1087-87-1087-10--10---------87-1087-87-1087-10--10-------------|
A|-----------8-------8----------------------8-------8------------------------|
D|---------------------------------------------------------------------------|

cont...
e|---------------------------------------8---|
B|-10--------10h11-1081011-------5h6p5-65-65-|
G|----7--10--------------12-10/9------7------|
D|-----8---10--------------------------------|
A|-------------------------------------------|
D|-------------------------------------------|

Chorus x2 2:51-3:11

Final Chorus 3:12-3:28
e|---------8-----------8-----------8-----53-6h8/5~-|
B|-5h6p5-65-65-5h6p5-65-65-5h6p5-65-65-65----------|
G|------7-----------7-----------7------------------|
D|-------------------------------------------------|
A|-------------------------------------------------|
D|-------------------------------------------------|

End Note 3:29-3:42
e|----|
B|----|
G|----|
D|-0~-|
A|-0~-|
D|-0~-|

| /  slide up
| \  slide down
| h  hammer-on
| p  pull-off
| ~  let ring
| +  harmonic
| x  Mute note
===============================================================================
Tap to rate this tab
# A B C D E F G H I J K L M N O P Q R S T U V W X Y Z