Guitaretab - guitar tabs
Song name
# A B C D E F G H I J K L M N O P Q R S T U V W X Y Z

Bloc Party - American Kids tab

--------------------------------------------------------------------------
                    American Kids Ė Bloc Party
-------------------------------------------------------------------------------
Tabbed by: Zwie
Email: Zwie98@aol.com

Tuning: Standard

This song is pretty sweet, and looks like I'm the first to tab this mother. I know maybe
other people may have a different version, but Iím tabbing the 1:00 instrumental
I think I got this version off of singingfish.com or limewire but I might be mistaken. 
only been playing guitar for maybe 7 months so donít hate me 2 much, if it sucks that bad?

	Guitar 1
e|------------------------------------------------------------------------------|
B|------------------------------------------------------------------------------|
G|--------12-9------------------------------------------------------------------|
D|-----10-----------------------------------------------------------------------|
A|------------------------------------------------------------------------------|
E|------------------------------------------------------------------------------|
	{16x} then just stop
[ Tab from: http://www.guitaretab.com/b/bloc-party/79894.html ]
	Guitar 2 part 1.
e|------------------------------------------------------------------------------|
B|----------------------10/14---------------------------------------------------|
G|------------------------------------------------------------------------------|
D|------------------------------------------------------------------------------|
A|------------------------------------------------------------------------------|
E|------------------------------------------------------------------------------|
Repeat 10 numerous of times then slide, if u have a delay pedal I think That is better,
I donít have a delay pedal so I donít, know for sure?????? Play this part for the first
seconds of the song and then switch to part 2.

	Guitar 2 Part 2.
e|-----------------------------------------------------------------------------|
B|---11-11-11-11-11-11-11-11p10-10-10-10---------------------------------------|
G|-----------------------------------------------------------------------------|
D|-----------------------------------------------------------------------------|
A|-----------------------------------------------------------------------------|
E|-----------------------------------------------------------------------------|
	Have some Drive when u play both parts of Gtr.2 Play for rest of song.

I tried my best just like the rest of my tabs, holla at cha boi if u c me in the streets {playa}

| / slide up
| \ slide down
| H hammer-on
| P pull-off
| ~ vibrato
| + harmonic
| X Mute note
===============================================================================
Related for American Kids tab