Song name
# A B C D E F G H I J K L M N O P Q R S T U V W X Y Z

Bloc Party - I Still Remember tab

I Still Remember
by Bloc Party
A Weekend in the City
Tabbed by: Light_Jak (with help from marco-butler's Tab)

This following tab is taken from the other tab on the site and I tried my best
getting some of the riffs such as in the chorus right. The other guy did a
great job but I wanted to revise it a little bit with some of my own material
so kudos to the other tab but here is my version which isn't too much 
different. 

Introduction (x2)

e|---------------------------------------------------------------------------|
B|--------13-11-10-----------13-11-10-------------10-----------------10------|
G|--10-10-----------10/9-9-9------------10-12-12-----10-------12-12----10----|
D|------------------------------------------------------10---------------10--|
A|---------------------------------------------------------------------------|
E|---------------------------------------------------------------------------|

Verse x 8

e|---------------------------------------------------------------------------|
B|---------------------------------------------------------------------------|
G|--10----3-----5-----7-----10-----------------------------------------------|
D|--10-x4-3-x4--5-x4--7-x4--10-x20-------------------------------------------|
A|--8-----1-----3-----5-----8------------------------------------------------|
E|---------------------------------------------------------------------------|

Pre-Chorus (Russell)
e|---------------------------------------------------------------------------|
B|--13--11--10---------------------------------------------------------------|
G|-------------10------------------------------------------------------------|
D|---------------------------------------------------------------------------|
A|---------------------------------------------------------------------------|
E|---------------------------------------------------------------------------|
                                      
Chorus (Kele) - repeat throughout chorus
e|---------------------------------------------------------------------------|
B|---------------------------------------------------------------------------|
G|-7----3---------3----5-----------------------------------------------------|
D|-7-x4-3-x4-3----3-x2-5-x2--------------------------------------------------|
A|-5----1----3-x4-1----3-----------------------------------------------------|
E|-----------1---------------------------------------------------------------|

Chorus (Russell)
e|---------------------------------------------------------------------------|
B|--13-13---------------10-13-15----10-11-10---------------------------------|
G|--------14-14/9-10-12----------10----------10-12---------------------------|
D|---------------------------------------------------------------------------|
A|---------------------------------------------------------------------------|
E|---------------------------------------------------------------------------|

This is played right after the riff above, it is slightly changed.

e|---------------------------------------------------------------------------|
B|--13-11-10------------10-13-15----10-11-10---------------------------------|
G|-----------12-9-10-12----------10----------10-12---------------------------|
D|---------------------------------------------------------------------------|
A|---------------------------------------------------------------------------|
E|---------------------------------------------------------------------------|

End of the Chorus - Couldn't figure out the rest yet.

e|---------------------------------------------------------------------------|
B|---------------------------------------------------------------------------|
G|-17----15----14------------------------------------------------------------|
D|---------------------------------------------------------------------------|
A|---------------------------------------------------------------------------|
E|---------------------------------------------------------------------------|

All of these are picked twice.
e|---------------------------------------------------------------------------|
B|---------------------------------------------------------------------------|
G|-7--9--10--12--14--15--17--21----------------------------------------------|
D|---------------------------------------------------------------------------|
A|---------------------------------------------------------------------------|
E|---------------------------------------------------------------------------|

Outro (Kele)
e|-8-------------------------------------------------------------------------|
B|-8-------------------------------------------------------------------------|
G|-10------------------------------------------------------------------------|
D|-10------------------------------------------------------------------------|
A|-8-------------------------------------------------------------------------|
E|---------------------------------------------------------------------------|

Outro (Russell) - after the intro riff is played twice, he moves up to this.
e|---------20-18-17-------------20-18-17-----------17--------------17--------|
B|--18-18-----------18\17-17-17-----------18-20-20---18------20-20---18------|
G|-----------------------------------------------------17-17-----------17----|
D|---------------------------------------------------------------------------|
A|---------------------------------------------------------------------------|
E|---------------------------------------------------------------------------|

The Song is played in this order:

Intro Riff x2
Verse x 8
Pre-Chorus
Chorus
Intro Riff x2
Verse x 8
Pre-Chorus
Chorus
Intro Riff x2
Outro

Special thanks to marco-butler's tab so I could get this song started. 
 
Tap to rate this tab
# A B C D E F G H I J K L M N O P Q R S T U V W X Y Z