Guitaretab - guitar tabs
Song name
# A B C D E F G H I J K L M N O P Q R S T U V W X Y Z

Bloc Party - Sxrt tab

-------------------------------------------------------------------------------
			     SXRT - A weekend in the city - Bloc Party
-------------------------------------------------------------------------------
Tabbed by: J Hamill
Email: jordan-hamill@hotmail.com

Tuning: Standard

My first tab :)


intro x2
e|---0-1-3---0-1-3--0-------0--------|
B|-------------------1-3-5---1-3-5---|
G|-----------------------------------|
D|-----------------------------------|
A|-3-------3------\0-------0---------|
E|-----------------------------------|

*Let notes on the A string ring. notes on e and B string are very soft!

verse 1 x4
e|---0-1-3---0-1-3-------------------|
B|-------------------1-3-5---1-3-5---|
G|-----------------------------------|
D|-----------------------------------|
A|-3-------3------\0-------0---------|
E|-----------------------------------|
*Let notes on the A string ring

Chorus
e|-0~0~0~0~1~1~1~1~0~0~0~0~3~3~3~3~-|
B|-1~1~1~1~1~1~1~1~1~1~1~1~1~1~1~1~-|
G|-0~0~0~0~0~0~0~0~2~2~2~2~2~2~2~2~-|
D|-2~2~2~2~2~2~2~2~2~2~2~2~2~2~2~2~-|
A|-3~--------------0~---------------|
E|----------------------------------|

e|-0~0~0~0~1~1~1~1~0~0~0~0~3~------|
B|-1~1~1~1~1~1~1~1~1~1~1~1~1~------|
G|-0~0~0~0~0~0~0~0~2~2~2~2~2~------|
D|-2~2~2~2~2~2~2~2~2~2~2~2~2~------|
A|-3~--------------0~--------------|
E|---------------------------------|
		   	    Let ring

Verse 2
guitar 1 play verse 1
[ Tab from: http://www.guitaretab.com/b/bloc-party/81999.html ]
guitar 2 (not sure what this is played on or what effects but i attempted it anyway)
e|----------------------------------|
B|-----6-5-----6-5------------------|
G|----------------------------------|
D|----------------------------------|
A|----------------------------------|
E|----------------------------------|

Bridge	x4			
work out the strumming pattern

e|---------3------------------------|
B|---------6---------------6--------|
G|-5-------5---------------7--------|
D|-5-------3-------7-------7--------|
A|-3-------3-------7-------5--------|
E|-----------------5----------------|
On 4th time let last chord ring

Outro

Guitar 1 play verse 1
guitar 2 plays it  beat before guitar 1

| /  slide up
| \  slide down
| h  hammer-on
| p  pull-off
| ~  vibrato
| +  harmonic
| x  Mute note

Lyrics:

Walking in the countryside
It seems that the winds have stopped
I took down the posters from my wall
Left letters for you all

I remember moments of happiness
Endless summer, acoustic guitars
Being a man made me coarse
When I wanted to be delicate

I called up Eugene
Told him I was drowning

Like a castaway on a warm ocean
Waiting for a purpose to rise
They say it's not becoming
For a boy my age

If you want to know what makes me sad
Well it's hope, the endurance of faith
A battle that lasts a lifetime
A fight that never ends

Walking in the countryside
It seems that the winds have stopped
Tell my mother I am sorry
And I loved her
===============================================================================
Related for Sxrt tab