Song name
# A B C D E F G H I J K L M N O P Q R S T U V W X Y Z

Bloc Party - Vision Of Heaven tab

----------------------------------------------------------------------------
			 Vision Of Heaven - Bloc Party
----------------------------------------------------------------------------

Tabbed by: Radiall
Email: orrinsf@msn.com

Tuning: Standard

Any feedback or comments welcome.

Intro
Guitar 1
e|-------------------------------------------------------------------|
B|-------------------------------------------------------------------|
G|-------------------------------------------------------------------| x 2
D|------11-12-11-----11-12-11--9\7----7-9-7-----7-9-7----------------|
A|----9-----------7-----------------------------------5/-------------|
E|----------------------------------9--------10----------------------|

Verse 1
Guitar 1
e|-------------------------------------------------------------------|
B|-------------------------------------------------------------------|
G|-------------------------------------------------------------------| x 10
D|------11-12-11-----11-12-11--9\7----7-9-7-----7-9-7----------------|
A|----9-----------7-----------------------------------5/-------------|
E|----------------------------------9--------10----------------------|

Chorus 1
Guitar 1
e|-------------------------------------------------------------------|
B|-----2------3-2------2------3-2------2------3-2------2-----3-2-----|
G|---2---2--2-----2--2---2--2-----0--2---2--2-----2--2---2-2---------|
D|-------------------------------------------------------------------|
A|-------------------------------------------------------------------|
E|-------------------------------------------------------------------|

e|-------------------------------------------------------------------|
B|-----2------3-2-----2------3-2-----2------2---------2-----3-2------|
G|---2---2--2-------2---2--2-------2---2--2---3-2---2---2-2----------|
D|-------------------------------------------------------------------|
A|-------------------------------------------------------------------|
E|-------------------------------------------------------------------|

Verse 2
Guitar 1
e|-------------------------------------------------------------------|
B|-------------------------------------------------------------------|
G|-------------------------------------------------------------------| x 10
D|------11-12-11-----11-12-11--9\7----7-9-7-----7-9-7----------------|
A|----9-----------7-----------------------------------5/-------------|
E|----------------------------------9--------10----------------------|

Guitar 2
e|-------------------------------------------------------------------|
B|-------------------------------------------------------------------|
G|----9-x-9-6---9-7-6-7---4-6-7----9-x-9-6---9/11--------------------|
D|-------------------------------------------------------------------|
A|-------------------------------------------------------------------|
E|-------------------------------------------------------------------|
                                                                       } x 2
e|-------------------------------------------------------------------|
B|-----------------------------------------------2/5-----------------|
G|----9-6-9-6---9-7-6-7---4-6-7---6-2---4-6-7-6--------2~------------|
D|-------------------------------------------------------------------|
A|-------------------------------------------------------------------|
E|-------------------------------------------------------------------|

Chorus 2
Guitar 1
e|-------------------------------------------------------------------|
B|-----2------3-2------2------3-2------2------3-2------2-----3-2-----|
G|---2---2--2-----2--2---2--2-----0--2---2--2-----2--2---2-2---------|
D|-------------------------------------------------------------------|
A|-------------------------------------------------------------------|
E|-------------------------------------------------------------------|

e|-------------------------------------------------------------------|
B|-----2------3-2-----2------3-2-----2------2---------2-----3-2------|
G|---2---2--2-------2---2--2-------2---2--2---3-2---2---2-2----------|
D|-------------------------------------------------------------------|
A|-------------------------------------------------------------------|
E|-------------------------------------------------------------------|

Guitar 2
e|-------------12----------10-9-5------------------------------------|
B|---12-12-10-----10-10-12--------5-3\2------------------------------|
G|---------------------------------------2-4-6-7-6--2--4-------------|
D|-------------------------------------------------------------------|
A|-------------------------------------------------------------------|
E|-------------------------------------------------------------------|

e|-------------12----------10-9-5------------------------------------|
B|---12-12-10-----10-10-12--------5-3\2------------------------------|
G|---------------------------------------2-4-6~---7-6-4--------------|
D|-------------------------------------------------------------------|
A|-------------------------------------------------------------------|
E|-------------------------------------------------------------------|

e|-------------12----------10-9-5------------------------------------|
B|---12-12-10-----10-10-12--------5-3\2------------------------------|
G|---------------------------------------2-4-6-7-6--2--4-------------|
D|-------------------------------------------------------------------|
A|-------------------------------------------------------------------|
E|-------------------------------------------------------------------|

e|-------------12----------10-9-5------------------------------------|
B|---12-12-10-----10-10-12--------5-3\2------------------------------|
G|---------------------------------------2-4-6-7--11-9---------------|
D|-------------------------------------------------------------------|
A|-------------------------------------------------------------------|
E|-------------------------------------------------------------------|

Bridge
Guitar 1
e|-------------------------------------------------------------------|
B|-------------------------------------------------------------------|
G|---2-2-2--2/6--6-6-6--6/11--11-11-11--11\7--7-6-4-2----------------|
D|-------------------------------------------------------------------|
A|-------------------------------------------------------------------|
E|-------------------------------------------------------------------|
                                                                       } x 2
e|-------------------------------------------------------------------|
B|-------------------------------------------------------------------|
G|---2-2-2--2/6--6-6-6--7-6-4-2--------------------------------------|
D|-------------------------------------------------------------------|
A|-------------------------------------------------------------------|
E|-------------------------------------------------------------------|

Solo
Guitar 1
e|-----------12---------9---------12--------------12---------9--------12--|
B|---10-9-10----10-9-10---10-9-10----10-9-10-9-10----10-9-10--10-9-10-----|
G|------------------------------------------------------------------------|
D|------------------------------------------------------------------------|
A|------------------------------------------------------------------------|
E|------------------------------------------------------------------------|

Outro
Guitar 1
e|-------------------------------------------------------------------|
B|-----2------3-2------2------3-2------2------3-2------2-----3-2-----|
G|---2---2--2-----2--2---2--2-----0--2---2--2-----2--2---2-2---------|
D|-------------------------------------------------------------------|
A|-------------------------------------------------------------------|
E|-------------------------------------------------------------------|

e|-------------------------------------------------------------------|
B|-----2------3-2-----2------3-2-----2------2---------2-----3-2------|
G|---2---2--2-------2---2--2-------2---2--2---3-2---2---2-2----------|
D|-------------------------------------------------------------------|
A|-------------------------------------------------------------------|
E|-------------------------------------------------------------------|

Guitar 2
e|-------------12----------10-9-5------------------------------------|
B|---12-12-10-----10-10-12--------5-3\2------------------------------|
G|---------------------------------------2-4-6-7-6--2--4-------------|
D|-------------------------------------------------------------------|
A|-------------------------------------------------------------------|
E|-------------------------------------------------------------------|

e|-------------12----------10-9-5------------------------------------|
B|---12-12-10-----10-10-12--------5-3\2------------------------------|
G|---------------------------------------2-4-6~---7-6-4--------------|
D|-------------------------------------------------------------------|
A|-------------------------------------------------------------------|
E|-------------------------------------------------------------------|

e|-------------12----------10-9-5------------------------------------|
B|---12-12-10-----10-10-12--------5-3\2------------------------------|
G|---------------------------------------2-4-6-7-6--2--4-------------|
D|-------------------------------------------------------------------|
A|-------------------------------------------------------------------|
E|-------------------------------------------------------------------|

e|-------------12----------10-9-5------------------------------------|
B|---12-12-10-----10-10-12--------5-3\2------------------------------|
G|---------------------------------------2-4-6-7--11-9---------------|
D|-------------------------------------------------------------------|
A|-------------------------------------------------------------------|
E|-------------------------------------------------------------------|



| /  slide up
| \  slide down
| h  hammer-on
| p  pull-off
| ~  vibrato
| +  harmonic
| x  Mute note
============================================================================
Tap to rate this tab
# A B C D E F G H I J K L M N O P Q R S T U V W X Y Z