Song name
# A B C D E F G H I J K L M N O P Q R S T U V W X Y Z

Bloc Party - Once And Future King tab

----------------------------------------------------------------------------
	         The Once And Future King - Bloc Party
----------------------------------------------------------------------------
Tabbed by: Radiall
Email: orrinsf@msn.com

A little doubt about the chorus' low parts, but I'm pretty sure that it's 99.9% correct. 


Tuning: Standard 

Intro/Verse
Guitar 1
e|---------------------------------------------------------------------|
B|---------------------------------------------------------------------|
G|---------------------------------------------------------------------| 
D|-------6-6-7-7----------------------6-6-7-7---------6-6--------------|
A|---9-9------------7-7---5-5-5---9-9-----------7-7--------------------|
E|----------------5-----5---------------------5-----5------------------|

e|---------------------------------------------------------------------|
B|---------------------------------------------------------------------|
G|---------------------------------------------------------------------| x3 
D|-------6-6-7-7----------------------6-6-7-7--------------------------|
A|---9-9------------7-7---5-5-5---9-9----------------------------------|
E|----------------5-----5---------------------5------------------------|

Guitar 2
e|-----------------------------------------------------------------------|
B|-----------------------------------------------------------------------|
G|---9-9-----9-9-9-11-9---9-9---9-999-7-6----9-9-----9-9-9-11-9--9-9-----|
D|-7-----7-7------------7-----7------------7-----7-7------------7----7-7-|x3
A|-----------------------------------------------------------------------|
E|-----------------------------------------------------------------------|


Pre-Chorus
Guitar 1
e|---------------------------------------------------------------------|
B|---------------------------------------------------------------------|
G|---------------------------------------------------------------------| 
D|-------6-6-7-7----------------------6-6-7-7---------6-6--------------| x2
A|---9-9------------7-7---5-5-5---9-9-----------7-7--------------------|
E|----------------5-----5---------------------5-----5------------------|

Chorus
Guitar 1
e|------------------------------------------------------------|
B|------------------------------------------------------------|
G|------------------------------------------------------------|
D|------------------------------------------------------------| x 2
A|---------------------7-5-4-2-2-0-0-00-2-4-4-----------------|
E|---7/2-2-2--7/2-2-2-----------------------------------------|

e|------------------------------------------------------------|
B|------------------------------------------------------------|
G|---14/9-9-9--14/9-9-9--9-7-6-4-4--------4-4-4-6-6-----------|
D|---------------------------------7-7-77---------------------|
A|------------------------------------------------------------|
E|------------------------------------------------------------|

e|----------------------------------------------------9-9-9-9-|
B|-------------------------------7-7-7-9-9-9-10-10-10---------|
G|---14/9-9-9--14/9-9-9--9-7-6-4------------------------------|
D|------------------------------------------------------------|
A|------------------------------------------------------------|
E|------------------------------------------------------------|

Verse 2
Guitar 1
e|---------------------------------------------------------------------|
B|---------------------------------------------------------------------|
G|---------------------------------------------------------------------| 
D|-------6-6-7-7----------------------6-6-7-7---------6-6--------------|
A|---9-9------------7-7---5-5-5---9-9-----------7-7--------------------|
E|----------------5-----5---------------------5-----5------------------|

e|---------------------------------------------------------------------|
B|---------------------------------------------------------------------|
G|---------------------------------------------------------------------| x2
D|-------6-6-7-7----------------------6-6-7-7--------------------------|
A|---9-9------------7-7---5-5-5---9-9----------------------------------|
E|----------------5-----5---------------------5------------------------|

Guitar 2
e|-----------------------------------------------------------------------|
B|-----------------------------------------------------------------------|
G|---9-9-----9-9-9-11-9---9-9---9-999-7-6----9-9-----9-9-9-11-9--9-9-----|
D|-7-----7-7------------7-----7------------7-----7-7------------7----7-7-|x2
A|-----------------------------------------------------------------------|
E|-----------------------------------------------------------------------|

Pre-Chorus
Guitar 1
e|---------------------------------------------------------------------|
B|---------------------------------------------------------------------|
G|---------------------------------------------------------------------| 
D|-------6-6-7-7----------------------6-6-7-7---------6-6--------------| x2
A|---9-9------------7-7---5-5-5---9-9-----------7-7--------------------|
E|----------------5-----5---------------------5-----5------------------|

Guitar 2
e|---------------------------------------------------------------------|
B|---------------------------------------------------------------------|
G|---4-4-4-4--6-6-6-6-----------------------------------7-7-7-7--------|
D|--------------------7-7-7-7--9-9--11-11--11-11-11-11-----------------|
A|---------------------------------------------------------------------|
E|---------------------------------------------------------------------|

e|---------------------------------------------------------------------|
B|---------------------------------------------------------------------|
G|---9-9-9-9--11-11--14-14---------------------------------------------|
D|---------------------------------------------------------------------|
A|---------------------------------------------------------------------|
E|---------------------------------------------------------------------|

Chorus
Guitar 1
e|------------------------------------------------------------|
B|------------------------------------------------------------|
G|------------------------------------------------------------|
D|------------------------------------------------------------| x 2
A|---------------------7-5-4-2-2-0-0-00-2-4-4-----------------|
E|---7/2-2-2--7/2-2-2-----------------------------------------|

e|------------------------------------------------------------|
B|------------------------------------------------------------|
G|---14/9-9-9--14/9-9-9--9-7-6-4-4--------4-4-4-6-6-----------|
D|---------------------------------7-7-77---------------------|
A|------------------------------------------------------------|
E|------------------------------------------------------------|

e|----------------------------------------------------9-9-9-9-|
B|-------------------------------7-7-7-9-9-9-10-10-10---------|
G|---14/9-9-9--14/9-9-9--9-7-6-4------------------------------|
D|------------------------------------------------------------|
A|------------------------------------------------------------|
E|------------------------------------------------------------|

Bridge
Hold Note Until Bass Stops
Guitar 2
e|---------------------|
B|---------------------|
G|-------11~-----------|
D|---------------------|
A|---------------------|
E|---------------------|

Come Back In With Some Sort Of Effects Playing
Guitar 2
e|----------------------------------------------------------|
B|-------15~-14~-----15~-14~-----15~-14~------15~-17~-19~---|
G|---11~---------11~---------11~---------11~----------------|
D|----------------------------------------------------------|
A|----------------------------------------------------------|
E|----------------------------------------------------------|

Outro
Guitar 1
e|---------------------------------------------------------------------|
B|---------------------------------------------------------------------|
G|---------------------------------------------------------------------| x4
D|-------6-6-7-7----------------------6-6-7-7---------6-6--------------|
A|---9-9------------7-7---5-5-5---9-9-----------7-7--------------------|
E|----------------5-----5---------------------5-----5------------------|

Guitar 2
e|----------------------------------------------------------|
B|----15~-14~-----15~-14~-----15~-14~------15~-17~-19~------|
G|------------11~---------11~---------11~-------------------|
D|----------------------------------------------------------|
A|----------------------------------------------------------|
E|----------------------------------------------------------|


| /  slide up
| \  slide down
| h  hammer-on
| p  pull-off
| ~  vibrato
| +  harmonic
| x  Mute note
============================================================================
Tap to rate this tab
 
# A B C D E F G H I J K L M N O P Q R S T U V W X Y Z