Song name
# A B C D E F G H I J K L M N O P Q R S T U V W X Y Z

Bloc Party - Srxt tab

Guitar 1 = Kele Okereke(Clean, Little Delay)

Verse 1+2
Kele:
e|---------------|---------------|---------------|---------------|
B|---------------|---------------|---------------|---------------|
G|------9--10--12|------9--10--12|------5--7--9--|------5--7--9--|
D|---------------|---------------|---------------|---------------|
A|---------------|---------------|---------------|---------------|
E|-8-------------|-8-------------|-5-------------|-5-------------|

Chorus:
Kele:
e|-0-0-0-0|-1-1-1-1|-0-0-0-0|-1-1-1-1|-3-3-3-3|
B|-1-1-1-1|-1-1-1-1|-1-1-1-1|-1-1-1-1|-6-6-6-6|
G|-0-0-0-0|-0-0-0-0|-2-2-2-2|-2-2-2-2|-5-5-5-5|
D|-0-0-0-0|-0-0-0-0|-2-2-2-2|-2-2-2-2|-3-3-3-3|
A|--------|--------|--------|--------|--------|
E|--------|--------|--------|--------|--------|
                             let ring
e|-0-0-0-0|-1-1-1-1|-0-0-1-1|-3|
B|-1-1-1-1|-1-1-1-1|-1-1-1-1|-6|
G|-0-0-0-0|-0-0-0-0|-2-2-2-2|-5|
D|-0-0-0-0|-0-0-0-0|-2-2-2-2|-3|
A|--------|--------|--------|--|
E|--------|--------|--------|--|

The rest of the song continues this way. I can't figure out what Russell plays during 
song, but i'm 100% sure about Kele's Part
Questions? Koenvandewardt@hotmail.com
Cheers..
Tap to rate this tab
# A B C D E F G H I J K L M N O P Q R S T U V W X Y Z