Song name
# A B C D E F G H I J K L M N O P Q R S T U V W X Y Z

Bloc Party - So Here We Are Acoustic tab

----------------------------------------------------------------------------
		So Here We Are (Acoustic) - Bloc Party
----------------------------------------------------------------------------
Tabbed by: MiKi
Email: miki.ross@gmail.com

this tab is taken from their acoustic set on spinner.com
and i think it's perfect, russell actually plays this.

Tuning: Standard

   Riff 1
e|-----------------------------------------------------|
B|-----0----0-------------0------0---------------------|
G|-------2-----2---2--------2------2---2---------x2----|
D|---------------2-------------------2-----------------|
A|---0-----0-----------0-------0-----------------------|
E|-----------------------------------------------------|


  Riff 2
e|-----------------------------------------------------|
B|-----2------2-----------2------2---------------------|
G|-------2------2---2-------2------2----2--------x2----|
D|---0------0-----0-----0------0-----0-----------------|
A|-----------------------------------------------------|
E|-----------------------------------------------------|


  Riff 3
e|-------0------0---------------0------0---------------|
B|---------0------0----0----------0------0---0---------|
G|-------------------1---------------------1--------x2-|
D|----2-------2--------------2-------2-----------------|
A|-----------------------------------------------------|
E|-----------------------------------------------------|


  Riff 4
e|-------5-------5------5-------5-------5--------------|
B|---------5-------5--------------5-------5-----5------|
G|--------------------7----------------------6------x2-|
D|---0--------0--------------0--------0----------------|
A|-----------------------------------------------------|
E|-----------------------------------------------------|


Intro:  Riff 1  Riff 2

cont.     Riff 1                     Riff 2
I caught a glimpse, but it's been forgotten
       Riff 1           Riff 2
So here we are          again

      Riff 3               Riff 4
I made a vow, to carry you home      home

         Riff 1               Riff 2
I really tried to do what you wanted
            Riff 1           Riff 2
It all went wrong            again
         Riff 3            Riff 4
I made a vow, to carry you home
           Riff 3
If you fall sick, if you pass

 ....out                                                out..............
e|----9------9----------------------------------9------9-----------10-------|
B|------10-----10---10-------10------10----10-----10-----10---10------10----|
G|----------------9-------11------11-----9------------------9---------------|
D|--0------0------------0-------0-------------0------0-----------0----------|
A|--------------------------------------------------------------------------|
E|--------------------------------------------------------------------------|

e|----10--------------------------------------------------------------------|
B|-------10---10------------------------------------------------------------|
G|----------9---------------------------------------------------------------|
D|--0-----------------------------------------------------------------------|
A|--------------------------------------------------------------------------|
E|--------------------------------------------------------------------------|

e|--------------------------------------------------------------------------|
B|-----------------------0----------------------0---------------------------|
G|------9-----9----------------9----------9-----------9-----7-----6---------|
D|----7-----7-----7----7-----7-----7----7-----7-----7-----7-----7-----------|
A|--0-----0-----0----0-----0-----0----0-----0-----0-----0-----0-------------|
E|--------------------------------------------------------------------------|

e|------------------0-------------------------------------------------------|
B|------0--2p0-------------3-----2-------0--2p0------0-----0------0---------|
G|----2--------2------2------2---------2--------2------2-----2--------------|
D|--0------------0------0------0-----0------------0------0-----0------------|
A|--------------------------------------------------------------------------|
E|--------------------------------------------------------------------------|

e|--------------------------------------------------------------------------|
B|-----------------------0----------------------0---------------------------|
G|------9-----9----------------9----------9-----------9-----7-----6---------|
D|----7-----7-----7----7-----7-----7----7-----7-----7-----7-----7-----------|
A|--0-----0-----0----0-----0-----0----0-----0-----0-----0-----0-------------|
E|--------------------------------------------------------------------------|

e|------------------0--------------------------------------------------------|
B|------0--2p0-------------3-----2-------0--2p0------0-----0-----0-----------|
G|----2--------2------2------2---------2--------2------2-----2---------------|
D|--0------------0------0------0-----0------------0------0-----0-------------|
A|---------------------------------------------------------------------------|
E|---------------------------------------------------------------------------|

  uuuuuhhhhhhhhhhhaaaaaaaaaaaaaaa
e|--------------------------------------------------------------------------|
B|----------9----------------9----------------------------------------------|
G|------9-----9---9------9-----9---9-----x2---------------------------------|
D|----7---7-----7------7---7-----7------------------------------------------|
A|--0----------------0------------------------------------------------------|
E|--------------------------------------------------------------------------|

  uuuuuhhhhhhhaaaaaaaaa
e|--------------------------------------------------------------------------|
B|----------9----------------9----------------------------------------------|
G|------9-----9---9------9-----9---9-----x2---------------------------------|
D|----7---7-----7------7---7-----7------------------------------------------|
A|--9----------------9------------------------------------------------------|
E|--------------------------------------------------------------------------|

  uuuuuuuuhhhhhhhaaaaaaaaaaa
e|--------------------------------------------------------------------------|
B|------10---12-10---10------10---12-10---10--------------------------------|
G|----9----9-------9-------9----9-------9-------x2--------------------------|
D|--------------------------------------------------------------------------|
A|--0--------------------0--------------------------------------------------|
E|--------------------------------------------------------------------------|

  uuuuuhhhhhhhhhhaaaaaaaaaaaaaaaaaaaaaaaaaaaaaa
e|----9------9------------10------10------------9------9--------------------|
B|------10-----10---10-------10------10---10------10-----10---10------------|
G|----------------9---------------------9-------------------9---------------|
D|--0------0------------0-------0-------------0------0----------------------|
A|--------------------------------------------------------------------------|
E|--------------------------------------------------------------------------|

  uuuuuhhhhhhhhhhaaaaaaaaaaaa
e|--9999999991010101010101010-----------------------------------------------|
B|-10101010101010101010101010-----------------------------------------------|
G|--999999999999999999999999------------------------------------------------|
D|--------------------------------------------------------------------------|
A|--------------------------------------------------------------------------|
E|--------------------------------------------------------------------------|

  I figured it out
e|--0000000000000000----0000000000000000---------|
B|--0000003322222222----0000003322222222---------|
G|--2222222222222222----2222222222222222---------|
D|--2222222222222222----2222222222222222---------|
A|--0000000000000000----0000000000000000---------| |
E|-----------------------------------------------| |
   I figured it out                                 x2
e|--0000000000000000----0000000000000000---------| |
B|--2222223322222222----2222223322222222---------| |
G|--2222222222222222----2222222222222222---------|
D|--0000000000000000----0000000000000000---------|
A|-----------------------------------------------|
E|-----------------------------------------------|

  I can see again
e|--0000000000000000----0000000000000000---------|
B|--2222232322222222----2222232322222222---------|
G|--2222222222222222----2222222222222222---------|
D|--2222222222222222----2222222222222222---------|
A|--0000000000000000----0000000000000000---------| |
E|-----------------------------------------------| |
  I can see again                                   x2
e|--0000000000000000----0000000000000000---------| |
B|--2222232322222222----2222232322222222---------| |
G|--2222222222222222----2222222222222222---------|
D|--0000000000000000----0000000000000000---------|
A|--xxxxxxxxxxxxxxxx----xxxxxxxxxxxxxxxx---------|
E|--2222222222222222----2222222222222222---------|

  I can see again
e|--0-----------------------------------------------------------------------|
B|--0-----------------------------------------------------------------------|
G|--2-----------------------------------------------------------------------|
D|--2-----------------------------------------------------------------------|
A|--0-----------------------------------------------------------------------|
E|--------------------------------------------------------------------------|
Tap to rate this tab
# A B C D E F G H I J K L M N O P Q R S T U V W X Y Z