Song name
# A B C D E F G H I J K L M N O P Q R S T U V W X Y Z

Bloc Party - Flux tab

Alright, I played all the tabs on the site (excluding guitar pro because I
temporarily don't have it) and they were all wrong to my ear. Sorry guys!

Guitar 1: Russel Lissack
Guitar 2: Kele Okerike
Synth: Gordon Moakes
(When they are playing live, Russel and Kele switch roles)

This is it:

Tuning: Standard

Intro synth: (Tremelo picking for each note)x2
e(---|---|---|------)
b(---|---|---|------)
g(---|---|---|------)
D(---|---|---|------)
A(---|---|---|------)
E(-9-|-5-|-0-|-7--8-)

Intro guitar 1: (Tremelo picking for each note)
e(-19-|-12-|-16-|-14--12-|-12-|-19-|-16--12-|-14-)
b(-----------------------------------------------)
g(-----------------------------------------------)
D(-----------------------------------------------)
A(-----------------------------------------------)
E(-----------------------------------------------)

Intro guitar 2: (Tremelo picking for each note)
e(-------------------------------------)
b(-------------------------------------)
g(-------------------------------------)
D(-9-|-2-|-6-|-4--2-|-2-|-9-|-6--2-|-4-)
A(-------------------------------------)
E(-------------------------------------)

Verse synth: (Tremelo picking for each note)x6
e(----------)
b(----------)
g(----------)
D(----------)
A(----------)
E(-9-|-12-5-)

Chorus synth: (Tremelo picking for each note)x2
e(---|---|---|------)
b(---|---|---|------)
g(---|---|---|------)
D(---|---|---|------)
A(---|---|---|------)
E(-9-|-5-|-0-|-7--8-)

Chorus guitar 1: (Tremelo picking for each note)
e(-19-|-12-|-16-|-14--12-|-12-|-19-|-16--12-|-14-)
b(-----------------------------------------------)
g(-----------------------------------------------)
D(-----------------------------------------------)
A(-----------------------------------------------)
E(-----------------------------------------------)

Chorus guitar 2: (Tremelo picking for each note)
e(-------------------------------------)
b(-------------------------------------)
g(-------------------------------------)
D(-9-|-2-|-6-|-4--2-|-2-|-9-|-6--2-|-4-)
A(-------------------------------------)
E(-------------------------------------)

Repeat verse

Repeat chorus

Interlude synth: (Tremelo picking on each note)x8
e(---)
b(---)
g(---)
D(---)
A(---)
E(-9-)

Repeat chorus until fade out

That's about it.

Tabbed by Tiggy Tiggemann (tiggy_m-cat@hotmail.com)
Tap to rate this tab
 
# A B C D E F G H I J K L M N O P Q R S T U V W X Y Z