Song name
# A B C D E F G H I J K L M N O P Q R S T U V W X Y Z

Block Out - Nikada Ti Vise Necu Otkriti Nijednu Tajnu chords

Highlighted       Show chord diagrams
Razlaganje:

E|--------------------------------------------------|
B|--1-----1-----1-----1-----1-----1-----1-----1--3--|
G|-----2-----2-----2-----2-----2-----2-----2--------|
D|--------------------------------------------------|
A|--------------------------------------------------|
E|--------------------------------------------------|

E|--------------------------------------------------------|
B|--0-----0-----0-----0-----0-----0-----0-----0--1--2--3--|
G|-----0-----0-----0-----0-----0-----0-----0--------------|
D|--------------------------------------------------------|
A|--------------------------------------------------------|
E|--------------------------------------------------------|


Am                         Em
Vise se ne secam ni kad je zadnji put duvala
Ima tri meseca
Am                    Em
Prodje Sveti Nikola i Nova godina

Am                        Em
Vrlo dobro je znam i uvek osetim
U kostima
Am                     Em
Ne bih rekao nikada da falice mi vetar

Am                      Em
Pa prekrstim ruke sam i gledam
                    Am
Nesto citam, pratim rad
                            Em
Prijatelja u rascepu izmedu svoga dobra i mog zla

Am                     Em
Sive slike iz proslog vremena
Da l  se vidi ista-
Am                             Em
parkiraj cekic iznad temena pa tras

Ja ne vredim nista
             C
Pusti me da sviram,
   C/G         Em
Da sviram sad sam
                    C/G
Ponekad tvoja rec mi ne da miran san
          C
I ne da mira
C/G       Em                   C/G
Miran sam al  ne razumem otkud sav taj bes
     C
I necu to da znam

Nesto nije u redu
Pa, i svasta ima da se razmislja
Mozda ne bih da umrem pametan,
Mozda bi  jos da smetam

U tvojim ustima spava kosava
U mojim inat i bes i nepravda
Tu sam gde sam i nisam spreman
Nisam spreman za katul- ferman

C      C/G
Biraj, biraj
Em
Ja znam, a ti to ne znas
      Am
Ti si pristao da verujes
C/G       C
Pa biraj, biraj
Em                  Am
Izdaja i predaja su majka jedna, oca dva
G         G#5
Pa biraj, biraj
G#5                 G5
Nikada ti necu vise otkriti ni jednu tajnu

G5                  B5 G#5-B5-G5
Tvoj korak je moje ime, cuvaj me

Previse nervozan
Ko da ga boli sve
Tako elastican i
Em
Slomio se

C/G
E|--0--
B|--0--
G|--2--
D|--0--
A|--2--
E|--3--

Band page: http://block-out.com/
Transkripcija: Stevan Golubovic
Tap to rate this tab
# A B C D E F G H I J K L M N O P Q R S T U V W X Y Z