Song name
# A B C D E F G H I J K L M N O P Q R S T U V W X Y Z

Block Out - Nikad Dve Hiljade I Kusur Godina chords

Highlighted       Show chord diagrams
Intro:
Asus2 Fmaj7

Razlaganje:
Fmaj7
E|-------------0--1r0--|
B|----------0----------|
G|-----0h2-------------|
D|--3------------------|
A|---------------------|
E|---------------------|

E|-----------------|
B|--0--------------|
G|-----2--0--------|
D|-----------3--3--|
A|-----------------|
E|-----------------|


Asus2
Pronadji neki put
pronadji novi svet
       Fmaj7
ja sam alergican na strah
a jos sam gori nego pre

Asus2
Nema razloga da poverujem sve
           Fmaj7
stedi svoj proliveni znoj
moj bol je, ipak samo moj

Asus2
Sve kao da je san
i kao da smo tu vec bili
Fmaj7
neki dan u isti cas
to prati nas od malih nogu

Asus2
Sanjao sam te, kucas eksere
     Fmaj7
moje ruke krvare
ja kao podnosim sve

Asus2 Fmaj7

Asus2
Pozelim na tren
da nisam vise tu
          Fmaj7
da prosto prestanem
da trazim zvezdu vodilju

   Asus2
E, vidis, to je laz
i za to ne postoji lek
           Fmaj7
kad mislis gotovo
a ono pocinje tek

Asus2
Jednom u zivotu
digni belu zastavu
   Fmaj7
i prihvati to kao svoju pobedu

Asus2
Svest za opste dobro
skupi ranjene
      Fmaj7
pa im podari so
neka se okale

C Am Fm Am
Asus2 Fmaj7

Asus2
Izvestaceni osmeh
sto odnosi tvoj greh
         Fmaj7
na listu cekanja
na listu trajanja, bez kajanja

Asus2
Lice sakriva
a ruke pune darova
       Fmaj7
i ceka da ti da
ceka da ti da

Asus2
Oci velike, on njima vidi sve
          Fmaj7
al' on je tako star
on nema nerava

Asus2
osramocen i sed
u ocima mu led
     Fmaj7
Ista uloga dve hiljade
i kusur godina


Refren:
C
  I nikad nece stici
Am
  i nikad nece stici
  Fm                   Am
  nikad, nikad na vreme

Razlaganje posle Fm:

Fm
E|--3-----------1-----------|
B|-----1-----------1--------|
G|--------1-----------1-----|
D|--------------------------|
A|--------------------------|
E|--------------------------|


Band page: http://www.block-out.com/
Transkripcija: Stevan Golubovic
Tap to rate this tab
# A B C D E F G H I J K L M N O P Q R S T U V W X Y Z