Guitaretab - guitar tabs
Song name
# A B C D E F G H I J K L M N O P Q R S T U V W X Y Z
Home / B / Blof / Mooie Dag tab

Blof - Mooie Dag tab

#----------------------------------PLEASE NOTE---------------------------------#
#This file is the author's own work and represents their interpretation of the #
#song. You may only use this file for private study, scholarship, or research. #
#------------------------------------------------------------------------------#
 
Date: Friday, 28.11.2003
Tabbed by Peter Tuyp(peter.tuyp@wxs.nl)

Subject:
Blf - Mooie dag  


chords:

Dm7    x00211
Am     002210
Dsus2/F100230
G/E    020002
C/B    020030 
C      032010 
G/B    x20003
G      320003
Bb     113331
Gm     355333
Abm    4x1100
Fm     244220
Fm/B   x24222


Intro:
  
  Dm7                                          Am 
|-1h3p1-------------------------------------------------------|
|-------1-1h3---3---1h3---3----1h3---3---1h3---------0h1p0----|
|-------------2---2-----2---2------2---2-----2-----2-------2--|
|-0-------0---------0----------0---------0-------2------------|
|----------------------------------------------0--------------|
|-------------------------------------------------------------|

  Dsus2/F                     C/B             C   
|------------------------------------------------------------------|
|-----3---------3---------3---------0h3-------------3---------3----|
|---2-2---0h2---2---0h2---2-------0--------0----0---0-0---0---0-0--|
|-------0---------0---------0---0-------0---------2---------2------|
|---------------------------------------------3---------3----------|
|-1-----------1---------1-----0------------------------------------|

            C/B            G6           
|---------------------------------------------------------|
|-------3-------3----------------3---------3---------3----|
|---0---0-0------------------0---0-0---0---0-0---0---0-0--|
|-----2-----------0h2-2-0------0---------0---------0------|
|-3---------2-2-------------------------------------------|
|--------------------------3---------3---------3----------|


verse 1: (use above fingerpicking or chords below)

Dm7                              Am        Dsus2/F
De zon, het zand, de hitte en de rustige rivier
   G/E          C              G/B            G
De stilte en de droogte, en de leegte van dit hier
Dm7                      Am                Dsus2/F
De hemel en de aarde, de weidsheid van het land
      G/E          C        G/B      G
En de wijsheid van n man, dat is genoeg


Chorus:

   Bb                    Gm
|----------1---------------------3----------|
|------3-----3---3-----------3-----3---3----|
|--------3-----3---3-----------3-----3---3--|
|----3---------------------5----------------|
|--1---------------------5------------------|
|-------------------------------------------|
   Er is niets waar ik op wacht
[ Tab from: http://www.guitaretab.com/b/blof/51924.html ]
   Dm
|--------0-1----------0-1-------------------|
|------3-----3------3-----3-----------------|
|----2------------2-------------------------|
|--0------------0---------------------------|
|-------------------------------------------|
|-------------------------------------------|
   Morgen blijft het nacht

   Dm
|--------0-1-3-1-0-1------------------------|
|------3------------------------------------|
|----2--------------------------------------|
|--0----------------------------------------|
|-------------------------------------------|
|-------------------------------------------|
   Ik overdacht mijn zorgen en de wereld

   C                     Am
|--3-0-------------0-----3----3-------------|
|------1-------1---------1-1--1-------------|
|--------0---0---0---------2----2-----------|
|----------2--------------------2-----------|
|-------------------------------------------|
|-------------------------------------------|
   En alle keren dat ik wakker lag, ik besloot

   G
|--------3------------3---------------------|
|------0---0--------0---0-------------------|
|----0------------0-------------------------|
|--0------------0---------------------------|
|-------------------------------------------|
|-------------------------------------------|
   Wat een mooie dag

   G
|--------3------------3---------------------|
|------0---0--------0---0-------------------|
|----0------------0-------------------------|
|--0------------0---------------------------|
|-------------------------------------------|
|-------------------------------------------|
   Wat een mooie dag


Verse 2:

Dm7                                  Am          Dsus2/F
De grond, het gras, de wegen naar de horizon die trilt
   G/E             C          G/B            G
De tijd is hier de ruimte, de diepte is hier wild
Dm7                         Am         Dsus2/F
De onzin en de noodzaak, ze naderen de grens
   G/E        C         G/B       G
De liefde van n mens, was mij genoeg


Chorus


Solo:

   Fm               A                Fm               A
|----------0----------------0----------------0----------------0------|
|------2-----2----------2-----2----------2-----2----------2-----2----|
|--------2-----2----------2-----2----------2-----2----------2-----2--|
|----4----------------2----------------4----------------2------------|
|--2----------------0----------------2----------------0--------------|
|--------------------------------------------------------------------|

   Abm              Fm               Fm/B             C          C
|----------0----------------0----------------2--------------------------|
|------0-----0----------2-----2----------2-----2------------1----1---1--|
|--------1-----1----------2-----2----------2-----2--------0-0----0-0-0--|
|----1----------------4----------------4----------------2----------2----|
|------------------------------------2----------------3-----------------|
|--4----------------2---------------------------------------------------|


Chorus twice

Bb - Gm - Dm - C - Am

                G
Wat een mooie dag
                G
Wat een mooie dag, voor de dood


Outro (use intro)
Related for Mooie Dag tab