Song name
# A B C D E F G H I J K L M N O P Q R S T U V W X Y Z

Blonde Redhead - Equus tab

Some parts are a little sloppy, but I'll correct them as soon as I get all the bass
correct (yes I know Blonde Redhead consists in drums and two guitars,no bass, but for the
version apparently they used a bass).
Anyway, this is my attempt to tab this song. I must say, that the live version is easier
the studio one, which is teh one I tabbed here. In order to get the correct timing I
suggest to play the tab while listening to the song, at least for the first couple of 
until you get it right. Hope it helps!

-------------------------------------------------------------------------------
			     EQUUS - Blonde Redhead
-------------------------------------------------------------------------------
Tabbed by:Gustavo Collado
Email:ltavo_87@hotmail.com

Tuning:EADGBe

Intro
e|-------------------------------------------|
B|-3r----3/7-3-5r------3--5------------------|
G|-4r—(4)-----------2h4----4r---2h4r--(7-4r)-|
D|-4r----------------------------------------|
A|-------------------------------------------|
E|-------------------------------------------|

e|-----------------------------------|
B|-3-7-3-5r—-3/7-10-7-5-9-5-3/7--5-7-|
G|-4---------------------------------|
D|-----------------------------------|
A|-----------------------------------|
E|-----------------------------------|

e|-----------------------|
B|-3/7-10-7-5--5-7-0-2-3-|
G|----------4--4---------|
D|-----------------------|
A|-----------------------|
E|-----------------------|

e|-------------------|
B|-3/7-10-7-9-12—-3r-|
G|----------------4r-|
D|----------------4r-|
A|-------------------|
E|-------------------|

Chorus 1
(Allow me to show you, the way which I adore you…)
e|-----------------------------------|
B|-----------------------------------|
G|-----------------------------------|X2
D|-999999-777777-111111111111-999999-|
A|-xxxxxx-xxxxxx-x-x-x-x-x-x--xxxxxx-|
E|-777777-555555-9-9-9-9-9-9--777777-|

Verse 1
(Sometimes I think I must just let you be, let you be a horse…)
e|--------------------------------|
B|-3r-3/7-10--7-10-12r—-5-7r—7-3r-|
G|-4r--------------------------4r-|
D|-4r--------------------------4r-|
A|--------------------------------|
E|--------------------------------|

e|-------------------------|
B|-3r-/7-10--7-12r—--------|
G|-4r--------------9-9-7-7-|
D|-4r----------------------|
A|-------------------------|
E|-------------------------|

Chorus 2
(Allow me to show you, the way which I adore you…)
e|-----------------------------------|
B|-----------------------------------|
G|-----------------------------------|X2
D|-999999-777777-111111111111-999999-|
A|-xxxxxx-xxxxxx-x-x-x-x-x-x--xxxxxx-|
E|-777777-555555-9-9-9-9-9-9--777777-|

Verse 2
(Sometimes I think I must just let you be, let you be a horse…)
e|--------------------------------|
B|-3r-3/7-10--7-10-12r—-5-7r—7-3r-|
G|-4r--------------------------4r-|X2
D|-4r--------------------------4r-|
A|--------------------------------|
E|--------------------------------|

e|-------------------------------|
B|-3r-3/7-10--7-12-12—-5-7r—7-3r-|
G|-4r-------------------------4r-|
D|-4r-------------------------4r-|
A|-------------------------------|
E|-------------------------------|

e|-----------------------|
B|-3r-3/7-10--7-12r—-----|
G|-4r----------------5-7-|
D|-4r--------------------|
A|-----------------------|
E|-----------------------|

Chorus 3
(Allow me to show you, the way which I adore you…)
e|-----------------------------------|
B|-----------------------------------|
G|-----------------------------------|X4
D|-999999-777777-111111111111-999999-|
A|-xxxxxx-xxxxxx-x-x-x-x-x-x--xxxxxx-|
E|-777777-555555-9-9-9-9-9-9--777777-|

Interlude
e|------------------|
B|------------------|
G|------------------|
D|------------------|
A|-0-2—-2-4-5-0-----|
E|--------------3-2-|

e|-------------------|
B|-------------------|
G|-------------------|X3
D|-------------------|
A|-0-2—-2-24-5-0-----|
E|---------------3-2-|

e|-----|
B|-----|
G|-----|
D|-----|
A|-0-2-|
E|-----|

e|----------------------------------------|
B|-------10-10------12--------8---10-10-7-|
G|-7-7-9-------9-11----9-11-7---7---------|
D|-0----------------------------0---------|
A|-0----------------------------0---------|
E|----------------------------------------|

(Equus by nature, timid creature…)
e|------------------------|
B|-----7-7h10-12-10-7-----|
G|-7-7---7-7--7--7--7-7-7-|X2
D|-0--------------------0-|
A|-0--------------------0-|
E|------------------------|

(Allow me to show you, the way which I adore you…)
e|-----------------------------|
B|-----------------------------|
G|-----------------------------|X2
D|-7h9999h7777h9h111111h9979-|
A|---------------------------|
E|---------------------------|

Chorus 4/Outro
(Allow me to show you, the way which I adore you…)
e|-----------------------------------|
B|-----------------------------------|
G|-----------------------------------|X4
D|-999999-777777-111111111111-999999-|
A|-xxxxxx-xxxxxx-x-x-x-x-x-x--xxxxxx-|
E|-777777-555555-9-9-9-9-9-9--777777-|

e|----|
B|----|
G|----|
D|-7r-|
A|-x--|
E|-5r-|

Cheers mates!
Tap to rate this tab
 
# A B C D E F G H I J K L M N O P Q R S T U V W X Y Z