Song name
# A B C D E F G H I J K L M N O P Q R S T U V W X Y Z

Blonde Redhead - For The Damaged tab

Help us improve GuitareTab! Take a short survey!
-------------------------------------------------------------------------------
			     FOR THE DAMAGED - Blonde Redhead
-------------------------------------------------------------------------------
Tabbed by: Gustavo Collado
Email:ltavo_87@hotmail.com

Tuning:EADGBe


Intro 

e|-------------------|
B|-------------------|
G|---5-7-8---4-5-4-5-|
D|-5-------3-------5-|
A|-------------------|
E|-------------------|

e|-----------------|
B|-----------------|
G|-5-7-8---4-5-4-5-|X3
D|-------3-------5-|
A|-----------------|
E|-----------------|


Verse 1

(Maybe again he will be alone...)
e|-(11)---(11)---(7)---(7)---(3)---(3)---(8)---(8)----|
B|--8------8------6-----6-----4-----4-----9-----9-----|
G|------8------8-----7-----7-----5-----5-----10----10-|
D|----------------------------------------------------|
A|----------------------------------------------------|
E|----------------------------------------------------|

e|--------------------------------------------------|
B|-9--9---9----9----------9----8----8----------8----|
G|--10-10---10---10----10---10---10---10----10---10-|
D|------------------10-------------------10---------|
A|--------------------------------------------------|
E|--------------------------------------------------|

e|------------------------------------------------(15-13-11)-|
B|-8----8----8----------9----8----8----------8---------------|
G|-7-10---10---10----10---10---10---10----10---10------------|
D|----------------10-------------------10--------------------|
A|-----------------------------------------------------------|
E|-----------------------------------------------------------|

e|-(11)---(11)---(7)---(7)---(3)---(3)---(8)---(8)----|
B|--8------8------6-----6-----4-----4-----9-----9-----|
G|------8------8-----7-----7-----5-----5-----10----10-|
D|----------------------------------------------------|
A|----------------------------------------------------|
E|----------------------------------------------------|

e|--------------------------------------------------|
B|-9--9---9----9----------9----8----8----------8----|
G|--10-10---10---10----10---10---10---10----10---10-|
D|------------------10-------------------10---------|
A|--------------------------------------------------|
E|--------------------------------------------------|

e|-----(8)-------(8)-----(6)-------(6)---|
B|------9---------9-------8---------8----|
G|-8-8-----8-8-8-----7-7-----7-7-7-----7-|
D|---------------------------------------|
A|---------------------------------------|
E|---------------------------------------|

e|-------(8)----------(8)--------(6)-------(6)---|
B|--------9------------9----------8---------8----|
G|----10-----10----10-----10---7-----7---7-----7-|
D|-10-----------10-----------8---------8---------|
A|-----------------------------------------------|
E|-----------------------------------------------|

e|-----(4)-------(4)--------------------|
B|------4---------4-------3-------3-----|
G|---5-----5---5----5---5----5---5--5-5-|
D|-6---------6--------6--------6--------|
A|--------------------------------------|
E|--------------------------------------|

e|-11-------11---------------------------------------|
B|----8---8----8---8-----8-------8-------3-------3---|
G|------8--------8-----8---8---8---8---5---5---5---5-|
D|-------------------8-------8-------6-------6-------|
A|---------------------------------------------------|
E|---------------------------------------------------|


Verse 2

(Say you were me then you could see the view...)
e|-(11)---(11)---(7)---(7)---(3)---(3)---(8)---(8)----|
B|--8------8------6-----6-----4-----4-----9-----9-----|
G|------8------8-----7-----7-----5-----5-----10----10-|
D|----------------------------------------------------|
A|----------------------------------------------------|
E|----------------------------------------------------|

e|--------------------------------------------------|
B|-9--9---9----9----------9----8----8----------8----|
G|--10-10---10---10----10---10---10---10----10---10-|
D|------------------10-------------------10---------|
A|--------------------------------------------------|
E|--------------------------------------------------|

e|------------------------------------------------(15-13-11)-|
B|-8----8----8----------9----8----8----------8---------------|
G|-7-10---10---10----10---10---10---10----10---10------------|
D|----------------10-------------------10--------------------|
A|-----------------------------------------------------------|
E|-----------------------------------------------------------|

e|-(11)---(11)---(7)---(7)---(3)---(3)---(8)---(8)----|
B|--8------8------6-----6-----4-----4-----9-----9-----|
G|------8------8-----7-----7-----5-----5-----10----10-|
D|----------------------------------------------------|
A|----------------------------------------------------|
E|----------------------------------------------------|

e|--------------------------------------------------|
B|-9--9---9----9----------9----8----8----------8----|
G|--10-10---10---10----10---10---10---10----10---10-|
D|------------------10-------------------10---------|
A|--------------------------------------------------|
E|--------------------------------------------------|

e|-----(8)-------(8)-----(6)-------(6)---|
B|------9---------9-------8---------8----|
G|-8-8-----8-8-8-----7-7-----7-7-7-----7-|
D|---------------------------------------|
A|---------------------------------------|
E|---------------------------------------|


Verse 3/Outro

(Ah, ah, ah, ah. Don't cross your finger, Sundays will never change...)
e|---8---11----8---10---8---8---7---7-|
B|-----8---------9--------8-------9---|
G|-8--------10--------8-------7-------|X2
D|------------------------------------|
A|------------------------------------|
E|------------------------------------|

e|---66---66---666---666---444---444---444---444-|
B|---88---88---888---888---666---666---666---666-|
G|-6----6----6-----6-----5-----5-----5-----5-----|
D|-----------------------------------------------|
A|-----------------------------------------------|
E|-----------------------------------------------|

e|---444---444-----7-4---4-7-4---8-11-8-|
B|---666---666---6-----6----------------|
G|-3-----3-----3---------------8--------|
D|--------------------------------------|
A|--------------------------------------|
E|--------------------------------------|

e|----------------------------------(10h11)-|
B|------11----------9----------8------------|
G|---10----10----10---10----10---10---------|
D|-8----------10----------9-----------------|
A|------------------------------------------|
E|------------------------------------------|

e|-----(8)-------(8)-----(6)-------(6)---|
B|------9---------9-------8---------8----|
G|-8-8-----8-8-8-----7-7-----7-7-7-----7-|
D|---------------------------------------|
A|---------------------------------------|
E|---------------------------------------|

e|----(8)-----(10)----(6)----------3r-|
B|-----9--------9------8---------8----|
G|-8-8----8-8-8----7-7---7-7/5-5------|
D|------------------------------------|
A|------------------------------------|
E|------------------------------------|

Perhaps a couple of parts might be a little bit off, but overall I think
this tab sounds perfect. Hope it helps!

Cheers!
Related for For The Damaged tab