Song name
# A B C D E F G H I J K L M N O P Q R S T U V W X Y Z

Blonde Redhead - Elephant Woman tab

Artist: Blonde Redhead
Album: Misery Is A Butterfly
Song: Elephant Woman
Part: Keyboard Solo
Tuning: Standard

Here it is. Straight through. You can take it up an octave if you must...

---------------------------------------------------------------------------|
---------------------------------------------------------------------------|
---------------------------------------------------------------------------|
----------------6-------------5-6-----------6-4-----------4-------------6--|
-6-7-4-6-7-4-6-7-7-4-6-7-4-6-7---4-6-7-4-6-7---4-6-7-4-6-7-7-4-6-7-4-6-7-7-|
---------------------------------------------------------------------------|

-----------------------------------------------------------------------------|
-----------------------------------------------------------------------------|
-------------------------------------------------------6-------------6-9-6-8-|
------------5-6-----------6-4-----------6-7-4-6-7-4-6-7-7-4-6-7-4-6-7--------|
-4-6-7-4-6-7---4-6-7-4-6-7---4-6-7-4-6-7-------------------------------------|
-----------------------------------------------------------------------------|

----------------------------------------9----------------9-12-9-11-12-9-11-|
--------9-------------9-10-7-9-10-7-9-10-10-7-9-10-7-9-10------------------|
-9-6-8-9-9-6-8-9-6-8-9-----------------------------------------------------|
---------------------------------------------------------------------------|
---------------------------------------------------------------------------|
---------------------------------------------------------------------------|

-12-9-11-12-9-11-12-9-11-12-|
----------------------------|
----------------------------|
----------------------------|
----------------------------|
----------------------------|
Tap to rate this tab
# A B C D E F G H I J K L M N O P Q R S T U V W X Y Z