Song name
# A B C D E F G H I J K L M N O P Q R S T U V W X Y Z

Blonde Redhead - In Particular tab

Okay! First tab I've submitted in awhile...
I'll show the chord patterns with the trills that go
with it then I'll put it in order. But 1st...

Intro!:
-------------------------|
-------------------------|
-------------------------|
-------------------------|
-6--6--6--6--6--6--6--6--|
-------------------------|

Okay here r the patterns:
Cm Pattern:               B Pattern:
Guitar 1:
-8--8--8--8--8--8--8--8-- -7--7--7--7--7--7--7--7--|
-8--8--8--8--8--8--8--8-- -7--7--7--7--7--7--7--7--|
-10-10-8--8--10-10-8--8-- -10-10-8--8--10-10-8--8--|
-10-10-10-10-10-10-10-10- -9--9--9--9--9--9--9--9--|
------------------------- -------------------------|
------------------------- -------------------------|

Guitar 2:
------------------------- -------------------------|
------------7h8p7h8p7h8-- -------------6h7p6h7p6h7-|
------------------------- -------------------------|
------------------------- -------------------------|
------------------------- -------------------------|
------------------------- -------------------------|

Bb Pattern 1:     Bb Pattern 2:     Gm Pattern:
Guitar 1:
-6-6-6-6-6-6-6-6- -6-6-6-6-6-6-6-6- -3-3-3-3-3-3-3-3-|
-6-6-6-6-6-6-6-6- -6-6-6-6-6-6-6-6- -3-3-3-3-3-3-3-3-|
-8-8-7-7-8-8-7-7- -8-8-7-7-8-8-7-7- -5-5-3-3-5-5-3-3-|
-8-8-8-8-8-8-8-8- -8-8-8-8-8-8-8-8- -5-5-5-5-5-5-5-5-|
----------------- ----------------- -----------------|
----------------- ----------------- -----------------|

Guitar 2:
----------------- ----------------- -----------------|
--------6h7p6h7-- ---------2h3p2h3- ---------2h3p2h3-|
----------------- ----------------- -----------------|
----------------- ----------------- -----------------|
----------------- ----------------- -----------------|
----------------- ----------------- -----------------|

Gb Pattern:
Guitar 1:
-2-2-2-2-2-2-2-2-|
-2-2-2-2-2-2-2-2-|
-5-5-3-3-5-5-3-3-|
-4-4-4-4-4-4-4-4-|
-----------------|
-----------------|

Guitar 2:
-----------------|
---------1h2p1h2-|
-----------------|
-----------------|
-----------------|
-----------------|

Order:
Intro

Cm B Bb(1) Gm Gb Bb(2) Gb Bb(2)
Cm B Bb(1) Gm Gb Bb(2) Gb Bb(2)
Gb Gm Gb Bb(1) Gb Gm Gb Bb(1)

Cm B Bb(1) Gm Gb Bb(2) Gb Bb(2)
Cm B Bb(1) Gm Gb Bb(2) Gb Bb(2)

Solo 1 (x2):
Gb patt.         Gm patt.     Gb patt.
----------------------------------------------|
---------------------3-3---3-3----------------|
-3-5-6-6-3-5-6-6-3-5----3-5---3-5-6-6-3-5-6-6-|
----------------------------------------------|
----------------------------------------------|
----------------------------------------------|
Bb patt. 1
--------------|
----3-3---3-3-|
-3-5---3-5----|
--------------|
--------------|
--------------|

Cm B Bb(1) Gm Gb Bb(2) Gb Bb(2)
Gb Gm Gb Bb(1) Gb Gm Gb Bb(1)

Solo 2 (X2):
Gb patt.         Gm patt.     Gb patt.
----------------------------------------------|
---------------------3-3---3-3----------------|
-3-5-6-6-3-5-6-6-3-5----3-5---3-5-6-6-3-5-6-6-|
----------------------------------------------|
----------------------------------------------|
----------------------------------------------|
Bb patt. 1
-----------------|
-3-4-6-6-3-4-6-6-|
-----------------|
-----------------|
-----------------|
-----------------|

Gb Gm Gb Bb(1) Gb Gm Gb Bb(1)
Cm B Bb(1) Gm Gb Bb(2) Gb Bb(2)
Gb Gm Gb Bb(1) Gb Gm Gb Bb(1)
Gb Gm Gb Bb(1) Gb Gm Gb Bb(1)

Then the typical chord patterns are done for the end
Ending (repeat until fade):
Bb             B              Gb            Bb
-----------------------------------------------------|
-11----11-9-11-12----12-14-12-11----11-9-11-11----11-|
---10------------13-------------11------------10-----|
-----12------------13-------------11------------12---|
-----------------------------------------------------|
-----------------------------------------------------|
       Abm       Gb
---------------------------|
-12-11-9--9-11-9-7--7-9-11-|
--------8---------6--------|
---------9---------8-------|
---------------------------|
---------------------------|
Tap to rate this tab
# A B C D E F G H I J K L M N O P Q R S T U V W X Y Z